Oops, an error
Loading. Please wait.

Dog tab

28 views 1 this week
no commentswrite comment
1 2 3 4 5
3 more votes to show rating
add to favorites
×
Save as Personal and add changes to this tab that will be seen only by you. Learn more ›
×
You can save this tab as Personal to edit and correct it or add notes. All changes will be seen only by you. Learn more »
launch autoscroll
font size
0
reset
how to read this tab
guitar tuner
edit
Autoscroll
slow
fast
+/-
esc
set tempo
stop
About this tab version
Tuned to Eb, and requires a lot of sliding and tweaks. Power chords are a must. Was this info helpful? Yes No
DOG TABS TRANSCRIPT. Tabbed by Azariah Desbleds - Shadystraz360
BAND: Whitesnake
ALBUM: Live In The Shadow Of The Blues
SONG IS TUNED TO Eb

This is one of my favourite Whitesnake songs. It is RAW power.
There are a lot of tweaks, bends and slides involved. As you hear the song, you will 
figure out which areas
you need to perform these tricks to get the full effect of the song.

As for the guitar solo, i improvise this part. But i have played out the rhythm section 
played during the song

Eb|------------------------------------------------|
Bb|------------------------------------------------|
Gb|------------------------------------------------|
Db|------2---5---4---7---5---9---10--7---5--5-4----|
Ab|------2---5---4---7---5---9---10--7---5--5-4----|
Eb|------0---3---2---5---3---7---8---5---3--3-2----|


Eb|----0-----0-----0-----0-----0-----0-----0---------|
Bb|-----0-----0-----0-----0-----0-----0-----0--------|
Gb|--------------------------------------------------|
Db|--2-----5-----4-----7-----5-----9-----7-----10----|
Ab|--2-----5-----4-----7-----5-----9-----7-----10----|
Eb|--0-----3-----2-----5-----3-----7-----5-----8-----|


Eb|-----------------------------|
Bb|-----------------------------|
Gb|-----------------------------|
Db|----------------5------------|
Ab|----------5--7-----7--5------|
Eb|/--\---7-----------------7---|


Eb|:|----------------------------------------------------|
Bb|:|----------------------------------------------------|
Gb|:|------------------------------------------------7---|
Db|:|--------------------------------------------5---7---|
Ab|:|---7-5-7-5------7-5-7-5------7-5-7-5--------5-------|
Eb|:|-0---------7-0----------7-0--------------0----------|


Eb|--------------------------------------------------------|
Bb|--------------------------------------------------------|
Gb|--------------------------------------------------------|
Db|------------5-------------------------------------------|
Ab|--------5-7---7-5----7-5-7-5------7-5-7-5---5-----------|
Eb|---0--7-----------0----------7-0--------------7-6-0-7~--|


Eb|----------------------------------------|
Bb|----------------------------------------|
Gb|-----2-----2------9------2-----2-0-2-0--|
Db|--2--2--2--2--2---9---2--2--2--2-0-2-0--|
Ab|--2--0--2--0--2---7---2--0--2-----------|
Eb|--0-----0-----0-------0-----0-----------|


Eb|-----------------------|
Bb|-----------------------|
Gb|----------2-----2--0-2-|
Db|--2----2--2--2--2--0-2-|
Ab|--2----2--0--2---------|
Eb|--0----0-----0---------|


Eb|---------------------------------------------------0-|
Bb|---------------------------------------------------0-|
Gb|-----------------------7-----------------------------|
Db|--------7-7-7-7-5---7--7--7----7^-5h7p5--------------|
Ab|--------7-7-7-7-5---7--5--7--------------7-5------2--|
Eb|-4^[5]--5-5-5-5-3---5-----5------------------7----0--|


Eb|------------------------|:|-------------------------------|
Bb|------------------------|:|-------------------------------|
Gb|----2-------------------|:|----9---9---------7------------|
Db|--2-2-2---------5-------|:|--9-9-9-9-9---7-7-7-7~---------|
Ab|--2-0-2-----5-7---7-5---|:|--9-7-9-7-9---7-7-5-7~---12\---|
Eb|--0---0---/7------------|:|--7---7---7---5-5---5~---12\---|


Eb|---------------------|-||---------------------------||
Bb|---------------------|-||---------------------------||
Gb|-------9-9-9-9-9-----|-||---------------------------|| x4
Db|-------9-9-9-9-9-----|-||---------------------------||
Ab|-------7-7-7-7-7-----|-||-----------------22-55-----||
Eb|-/12\------------\12-|-||-000-222-333-555-----------||


[Guitar solo over rhythm]
Eb|-------------------------------------------------------|
Bb|-------------------------------------------------------|
Gb|--6---6-6--6---4---4-4--4---2---2-2--2-----------------|
Db|--6---6-6--6---4---4-4--4---2---2-2--2---------2-4-2-0-|
Ab|--4---4-4--4---2---2-2--2---0---0-0--0---4-2-4---------|
Eb|-------------------------------------------------------|


Eb|-----------------------------------------------|
Bb|-----------------------------------------------|
Gb|--6---6-6--6---4---4-4--4---2---2-2--2---2---4-|
Db|--6---6-6--6---4---4-4--4---2---2-2--2---2---4-|
Ab|--4---4-4--4---2---2-2--2---0---0-0--0---0---2-|
Eb|-----------------------------------------------|


Eb|-------------------------------------------------------|
Bb|-------------------------------------------------------|
Gb|--6---6-6--6---4---4-4--4---2---2-2--2-----------------|
Db|--6---6-6--6---4---4-4--4---2---2-2--2---------2-4-2-0-|
Ab|--4---4-4--4---2---2-2--2---0---0-0--0---4-2-4---------|
Eb|-------------------------------------------------------|

Eb|------------------||--|---------------||
Bb|------------------||--|---------------||
Gb|------------------||--|-----9---9-----|| x2
Db|--4---6---7---7---||x2|---9-9-9-9-9---||
Ab|--4---6---7---7---||--|---9-7-9-7-9---||
Eb|--2---4---5---5---||--|---7---7---7---||


Eb|------------------------|
Bb|------------------------|
Gb|--9------2-----2-0-2-0--|
Db|--9---2--2--2--2-0-2-0--|
Ab|--7---2--0--2-----------|
Eb|------0-----0-----------|


Eb|-----------------------|
Bb|-----------------------|
Gb|----------2-----2--0-2-|
Db|--2----2--2--2--2--0-2-|
Ab|--2----2--0--2---------|
Eb|--0----0-----0---------|


Eb|---------------------------------------------------0-|
Bb|---------------------------------------------------0-|
Gb|-----------------------7-----------------------------|
Db|--------7-7-7-7-5---7--7--7----7^-5h7p5--------------|
Ab|--------7-7-7-7-5---7--5--7--------------7-5------2--|
Eb|--4^[5]-5-5-5-5-3---5-----5------------------7~---0--|


Eb|-------------------------------------------------------|
Bb|-------------------------------------------------------|
Gb|----2-----------------------9---9---------7------------|
Db|--2-2-2---------5---------9-9-9-9-9---7-7-7-7~---------|
Ab|--2-0-2-----5-7---7-5-----9-7-9-7-9---7-7-5-7~---12\---|
Eb|--0---0---/7----------7---7---7---7---5-5---5~---12\---|


Eb|-----------------------------------|
Bb|-----------------------------------|
Gb|-------9-9-9-9-9-------------------|
Db|-------9-9-9-9-9--------5----------|
Ab|-------7-7-7-7-7-----5-7—7-5-------|
Eb|-/12\--------------7---------------|


Eb|--------------------------------------------|
Bb|--------------------------------------------|
Gb|--------------------------------------------|
Db|--2---5---4---7---5---9---10--7---5--5-4----|
Ab|--2---5---4---7---5---9---10--7---5--5-4----|
Eb|--0---3---2---5---3---7---8---5---3--3-2----|

Eb|----0-----0-----0-----0-----0-----0-----0---------|
Bb|-----0-----0-----0-----0-----0-----0-----0--------|
Gb|--------------------------------------------------|
Db|--2-----5-----4-----7-----5-----9-----7-----10----|
Ab|--2-----5-----4-----7-----5-----9-----7-----10----|
Eb|--0-----3-----2-----5-----3-----7-----5-----8-----|


Eb|;|----------------------------------------------------|
Bb|;|----------------------------------------------------|
Gb|;|----------------------------------------------------|
Db|;|----------------------------------------------------|
Ab|;|---7-5-7-5------7-5-7-5------7-5-7-5---5------------|
Eb|;|-0---------7-0----------7-0--------------7-6-0-7~---|


Eb|--------------------------------------------------------|;|
Bb|--------------------------------------------------------|;|
Gb|--------------------------------------------------------|;|
Db|------------5-------------------------------------------|;|
Ab|--------5-7---7-5----7-5-7-5------7-5-7-5---5-----------|;|
Eb|---0--7-----------0----------7-0--------------7-6-0-5~--|;|


Eb|-----||-----------------------||
Bb|-----||-----------------------||
Gb|-----||------------------9----|| x3
Db|-----||------------------9----||
Ab|-----||------------22-55-7----||
Eb|-000-||-222-333-555-----------||

Eb|-------------------|
Bb|-------------------|
Gb|--9----9----9-9-9--|
Db|--9----9----9-9-9--|
Ab|--7----7----7-7-7--|
Eb|---0000-0000-------|


Key points
>< - slide accross the neck or depending on notes played
~ - Bend notes
|:| & |;| - Repeat between these bars as heard on the track
/ & \ - Slide to note & Slide starting from note
^[] - Bend up half a note
^ - Tweak
h & p - Hammer On & Pull Off
|| - Repeat bar on quantity listed
Email me with any questions
shadystraz360@gmail.com

            
            
Suggest correction
Creating personal tab
Creating personal tab
You can edit any tab online and save it as your Personal.

You can edit, replace or remove any tab part or add personal notes – all changes will be seen only by you.

Personal tabs can be accessed anytime from any device, even offline.
Learn more »
Give kudos to tab author, rate the tab!
1 2 3 4 5
comments
print report bad tab
guest
You may want to rate the tab now too:
select rating
Wanna post a correction for this tab? Suggest correction