Oops, an error
Loading. Please wait.
We have an official Here I Go Again tab made by UG professional guitarists. Check out the tab »
×

Here I Go Again tab

version 1
version 1

Whole song

Interactive

Video

40,943 views 12 this week
1 commentread comment
1 2 3 4 5
x 5
add to favorites
×
Save as Personal and add changes to this tab that will be seen only by you. Learn more ›
×
You can save this tab as Personal to edit and correct it or add notes. All changes will be seen only by you. Learn more »
launch autoscroll
font size
0
reset
how to read this tab
guitar tuner
backing track
0:00
0:00
edit
Autoscroll
slow
fast
+/-
esc
set tempo
stop
Author
Here i go again- Whitesnake

tabbed by-jmypageisgod


  restx27
/----------
-------------|-----------------------|------------------|---------------------|
-------------|-----------------------|------------------|---------------------|
-------------|-------0-0-0--2-2--2---|-----------0--0---|--2--2--q--0----2----|
-------------|--q-e---------0-0--0---|--0--0--q-------q-|--0--0----------0----|
-------------|-------3-3-3-----------|-----------3--3---|-----------3---------|
-------------|-----------------------|--3--3------------|---------------------|


-------------------|---------------------|--------------------|---------------------|
-------------------|---------------------|--------------------|---------------------|
-----------0--0----|--2--2--q--0----2----|-----------0--0-----|--2--2----0----------|
--0--0--q--------q-|--0--0----------0----|--0--0--q--------q--|--0--0--q------------|
-----------3--3----|-----------3---------|-----------3--3-----|----------3----2h3p2-|
--3--3-------------|---------------------|--3--3--------------|---------------------|


-------------------|--------------------|------------------|-------------------|
----------1-3-1----|-----------3--------|---------1-3-1----|-------------------|
----------0-2-0----|--2--------2--------|---------0-2-0----|--2--------0----2--|
-------------------|--0----2-4----------|------------------|--0-------------0--|
--0-0-0-0----------|----------------2-0-|-0-0-0-0----------|-----------3-------|
-------------------|--------------------|------------------|-------------------|

 restx5
/--------
-----------|---------------|---------------------|--------------------|
-----------|---------------|----------1-3-1------|-----------3--------|
-----------|---------------|----------0-2-0------|--2--------2--------|
-----------|--h------------|---------------------|--0----2-4----------|
-----------|-----3----2----|--0-0-0-0------------|----------------3-2-|
-----------|---------------|---------------------|--------------------|


-------------------|----------------------|-------------------|------------------|
---------1-3-1-----|-2----2-2-0--0-0-2----|-------------------|------------------|
---------0-2-0-----|-0----0-0--------0----|----------0--0-----|-2--2-----0----2--|
-------------------|----------3--3-3------|-0--0--q--------q--|-0--0--q-------0--|
-0-0-0-0-----------|----------------------|----------3--3-----|----------3-------|
-------------------|----------------------|-3--3--------------|------------------|


-------------------|--------------------|-----------------|----------------------|
-------------------|--------------------|-----------------|----------------------|
----------0--0-----|-2--2-----0----2----|----------0--0---|--2--2----0-----------|
-0--0--q--------q--|-0--0--q-------0----|--0--0--q------q-|--0--0--q-------------|
----------3--3-----|----------3---------|----------3--3---|----------3----2-3-2--|
-3--3--------------|--------------------|--3--3-----------|----------------------|


-----------------------|-------------------|--------------------|-------------------|
----------1-3-1--------|----------3--------|---------1-3-1------|--------------0----|
----------0-2-0--------|-2--------2--------|---------0-2-0------|-------2-----------|
-----------------------|-0----2-4----------|--------------------|-e-2-4----2-4------|
-0-0-0-0---------------|---------------2-0-|-0-0-0-0------------|-------------------|
-----------------------|-------------------|--------------------|-------------------|


--0-----0-----------|------------------|--------------------|--------0-0-----------|
--------0-----------|------------------|--------0-----------|------3-0-0--3--------|
--------------------|--------2---------|--------------------|------2------2--------|
--------2-----------|-2----e-----------|------e-2-----------|-2--------------------|
--------------------|-0----------------|-2------------------|-0--------------------|
--------------0-3-0-|--------------3-2-|-0------0-----0-3-0-|------------------3-2-|


-0------0--------------|-----------------------------|-0------0-------------|
--------0--------------|-------------0---------------|--------0-------------|
-----------------------|---------0-----0-2-2---0-----|----------------------|
--------2------s-------|-2-----2---2---------2---2-0-|--------2-------------|
-----------------------|-0---------------------------|----------------------|
-----------------0-3-0-|-----------------------------|----------------0-3-0-|


------------------|-----------------3--|-3-2--3----------0-2--3-|
------------------|---0-1--3-----------|--------1---------------|
--------0----2----|----------2---------|------------------------|
-2-----------0----|-q------------------|------------------------|
-0------3---------|--------------------|------------------------|
------------------|--------------------|------------------------|


-5-5-----5-3-5-----------5-|-3-----3-3--------|-17----17----15---17--------|
---------------3------3----|------------------|---------------------15-----|
------------------2-2------|------------------|----------------s-----------|
---------------------------|------------------|----------------------------|
---------------------------|------------------|----------------------------|
---------------------------|------------------|----------------------------|



---------------0-5-0-5----12-12-12--14-|-19------------------|---------------------|
---------------7-8-7-8-13-15-----------|----------1-3-1------|----------3----------|
----0----0-0-0---------16--------------|----------0-2-0------|-2--------2----------|
---------7---4-------------------------|---------------------|-0----2-4------------|
----9-9--------------------------------|-0--0-0-0------------|-----------------3-2-|
-12---12-------------------------------|---------------------|---------------------|


--------------------|-----------------------|---------------|------------------|
---------1-3-1------|-----------------------|---------------|------------------|
---------0-2-0------|-2------2-2-0--0-0-2---|--------0--0---|-2--2---0----2----|
--------------------|-0------0-0--------0---|-0--0-q------q-|-0--0-q------0----|
-0-0-0-0------------|------------3--3-3-----|--------3--3---|--------3---------|
--------------------|-----------------------|-3--3----------|------------------|


---------------|------------------|---------------|--------------------|
---------------|------------------|---------------|--------------------|
--------0--0---|-2--2---0----2----|--------0--0---|-2--2-q-0-----------|
-0--0-q------q-|-0--0-q------0----|-0--0-q------q-|-0--0---------------|
--------3--3---|--------3---------|--------3--3---|--------3----2-3-2--|
-3--3----------|------------------|-3--3----------|--------------------|


-------------------|--------------------|-------------------|---------------------|
---------1-3-1-----|----------3---------|---------1-3-1-----|---------------------|
---------0-2-0-----|-2--------2---------|---------0-2-0-----|-2-----2-2-0--0-0-2--|
-------------------|-0----2-4-----------|-------------------|-0-----0-0--------0--|
-0-0-0-0-----------|----------------2-0-|-0-0-0-0-----------|-----------3--3-3----|
-------------------|--------------------|-------------------|---------------------|


----------------|------------------|---------------|------------------|
----------------|------------------|---------------|------------------|
--------0--0----|-2--2-q-0----2----|--------0--0---|-2--2---0----2----|
-0--0-q------q--|-0--0--------0----|-0--0-q------q-|-0--0-q------0----|
--------3--3----|--------3---------|--------3--3---|--------3---------|
-3--3-----------|------------------|-3--3----------|------------------|


---------------|--------------------|--------------------|---------------------|
---------------|--------------------|---------1-3-1------|----------3----------|
--------0--0---|-2--2---0-----------|---------0-2-0------|-2--------2----------|
-0--0-q------q-|-0--0-q-------------|--------------------|-0----2-4------------|
--------3--3---|--------3----2-3-2--|-0-0-0-0------------|-----------------2-0-|
-3--3----------|--------------------|--------------------|---------------------|



--------------------|--------------------|---------------|------------------|
---------1-3-1------|--------------------|---------------|------------------|
---------0-2-0------|-2--------0----2----|--------0--0---|-2--2---0----2----|
--------------------|-0-------------0----|-0--0-q------q-|-0--0-q------0----|
-0-0-0-0------------|----------3---------|--------3--3---|--------3---------|
--------------------|--------------------|-3--3----------|------------------|



----------------|------------------|---------------|--------------------|
----------------|------------------|---------------|--------------------|
---------0--0---|-2--2---0----2----|--------0--0---|-2--2---0-----------|
--0--0-q------q-|-0--0-q------0----|-0--0-q------q-|-0--0-q-------------|
---------3--3---|--------3---------|--------3--3---|--------3----2-3-2--|
--3--3----------|------------------|-3--3----------|--------------------|


--------------------|---------------------|--------------------|--------------------|
---------1-3-1------|----------3----------|---------1-3-1------|--------------------|
---------0-2-0------|-2--------2----------|---------0-2-0------|--2-------0----2----|
--------------------|-0----2-4------------|--------------------|--0------------0----|
-0-0-0-0------------|-----------------2-0-|-0-0-0-0------------|----------3---------|
--------------------|---------------------|--------------------|--------------------|


----------------|
----------------|
----------------|
--0--0-q-0--q-e-|
----------------|
--3--3---3------|

            
            
Suggest correction
Creating personal tab
Creating personal tab
You can edit any tab online and save it as your Personal.

You can edit, replace or remove any tab part or add personal notes – all changes will be seen only by you.

Personal tabs can be accessed anytime from any device, even offline.
Learn more »
comments
print report bad tab
1 comment total.
+1 reply
MaggaraMarine 1,223 May 04, 2011 04:45 AM

what is this?

guest
You may want to rate the tab now too:
select rating
Wanna post a correction for this tab? Suggest correction