Oops, an error
Loading. Please wait.
We have an official Still Of The Night tab made by UG professional guitarists. Check out the tab »
×
9,888 views 3 this week
1 commentread comment
1 2 3 4 5
x 6
add to favorites
guitar tuner
Autoscroll
slow
fast
+/-
esc
set tempo
stop
"Still Of The Night"
demo version
Play now

or get full version for Free

×
Get full version now!
Learn and play this song
in Tab Pro
Try for free

or get $10 off Welcome Bonus

Get welcome bonus
Get access to Tab Pro version of “Still Of The Night”!
Tab Pro is a premium guitar tab service, available on PC, Mac, iOS and Android
TRY FOR FREE
To download “Still Of The Night” Power tab click button below
Please note that you must have Power Tab software installed on your
computer in order to view this file.
Suggest correction
comments
report bad tab
1 comment total.
0 reply
MaggaraMarine 1,233 Jan 23, 2011 07:03 AM

Good tab, some parts a bit off like the main riff (only 1 note):

It should be:
|---------------------------------|
|---------------------------------|
|---------------------------------|
|---------------------------------|
|-0-3-2-0-2-0-----2-3-2-0-2-0-----|
|-------------2-0-------------2-0-|

Not:
|---------------------------------|
|---------------------------------|
|---------------------------------|
|---------------------------------|
|-2-3-2-0-2-0-----2-3-2-0-2-0-----|
|-------------2-0-------------2-0-|

And why is the E5 chord played like 02245x when you can play it like 022x00 (open E5). I think it should be like that, OK it sounds the same, but it's easier to play open.

guest