Oops, an error
Loading. Please wait.
We have Chord Pro version of No Woman.
It's the closest thing you can get to the original song and it has interactive parts. Check out the tab »
×
by whitney
22,621 views 351 this week
4 commentsread comments
1 2 3 4 5
x 45
add to favorites
×
Save as Personal and add changes to this tab that will be seen only by you. Learn more ›
×
You can save this tab as Personal to edit and correct it or add notes. All changes will be seen only by you. Learn more »
launch autoscroll
font size
0
reset
how to read this tab
guitar tuner
edit
Autoscroll
slow
fast
+/-
esc
set tempo
stop
Tuned a little sharp.  X means don't let that string ring out.

Chord changes are 
Em A(1) A(2) GM7 
Em A(2) A(1) GM7

Em
e|-0
b|-0
g|-0
d|-2
a|-2
e|-0

A(1)
e|-X
b|-5
g|-6
d|-7
a|-7
e|-X

A(2)
e|-X
b|-5
g|-6
d|-7
a|-0
e|-X

GM7

e|-2
b|-3
g|-4
d|-5
a|-
e|-

Here are the notes for the flowery solo part.  So much fun to play!

e|--------------------------------------------------------------------------------------
b|-------7----------------------7(7)---(7)----------------------------------------------
g|-----7---9--7h9p7-----------7---7h9---7h9----------7(7)---(7)----------7-6h7p6---6----
d|---9--------------9-7----9-----------------------7---7h9---7h9-------7--------9-------
a|-7---------------------7-----------------------9-------------------9---------------7h9 repeat
e|--------------------------------------------10------------------10--------------------


Tame Impala Lick: Don't really play that first note, that's just where your slide should start.  I don't see 
this part as plagiarism, anyone should be allowed to play a sweet lick once..

e|-----------
b|-----------
g|-----------
d|-----------
a|-7/9-7-5---
e|---------7-


Goofy solo: I'm only going to write down part of this...It's just Em pentatonic, except he plays the 9 at the
end.

e|------------------------------------------------------------------------
b|-10p7-------------------------10p7--------------------------------------
g|-----9p7------------------7-------9p7-----------------------------------
d|--------9------------7h9-------------7-------9--9------9p7--7-9---------...walk up the scale and end with
a|---------------------------------------------------7h9----9---(7)h9-7---
e|------------------------------------------------------------------------

e|---------------------14p12-----12--eventually 12--10--
b|------7-7------10h12------10h12---------------12--10--
g|-9--9-7-7---------------------------------------------
d|-9--9-------------------------------------------------
a|------------------------------------------------------
e|------------------------------------------------------

            
            
Suggest correction
Creating personal tab
Creating personal tab
You can edit any tab online and save it as your Personal.

You can edit, replace or remove any tab part or add personal notes – all changes will be seen only by you.

Personal tabs can be accessed anytime from any device, even offline.
Learn more »
comments
print report bad tab
4 comments total. Showing first comments.
0 reply
mafihoje 10 Oct 24, 2016 11:13 AM

This is pretty spot on as far as I can tell, only the end of the riff seems off to me.

I don't think it goes to the 6th fret. Instead it's just something like this, with a pulloff at the end:

G---------7--------(7)------
D-------7---7h9p7---7-------
A-----9-----------9----9p7--
E--10-----------------------

In any case, this also makes it easier to flow into the next repition smoothly.

0 reply
clawmaster20 37 Nov 30, 2016 11:55 PM

can someone line this up with the lyrics?

+4 reply
Sephian 148 Dec 30, 2016 06:52 AM

Damn. That is absolutely a Tame Impala lick, I never noticed.

guest
Wanna post a correction for this tab? Suggest correction