Oops, an error
Loading. Please wait.

Buwan bass

version 2
version 2

Whole song

540 views 1 this week
1 commentread comment
1 2 3 4 5
2 more votes to show rating
add to favorites
×
Save as Personal and add changes to this tab that will be seen only by you. Learn more ›
×
You can save this tab as Personal to edit and correct it or add notes. All changes will be seen only by you. Learn more »
launch autoscroll
font size
0
reset
guitar tuner
edit
Autoscroll
slow
fast
+/-
esc
set tempo
stop
Author
Difficulty
buwan
by wickermoss
tabbed by:fayefaye913

Intro:

Isang set muna ng chords sa guitar then pasok..

G|--------------------------------------------------|
D|-------------------6---------------------6--------|
A|--/77777777777---7---9-7-66666666666---6---9-7----|
E|---------------7---------------------7------------|
							2x
G|--------------------------------------------------|
D|--------------------------------------------------|
A|--44444444444---4-6-7-6-----------6666-9999-------|
E|--------------5---------7777-9999-----------------|

Verse 2:

Pareho lang nung intro..tuluy-tuloy yun

G|--------------------------------------------------|
D|-------------------6---------------------6--------|
A|--/77777777777---7---9-7-66666666666---6---9-7----|
E|---------------7---------------------7------------|
							2x
G|--------------------------------------------------|
D|--------------------------------------------------|
A|--44444444444---4-6-7-6-----------6666-9999-------|
E|--------------5---------7777-9999-----------------|

Refrain:

Sa part na to dapat lakasan yung pagpluck
para bass yung mangibabaw
 
G|-------------------------------|
D|------9-7-6---------6----------|
A|----7-------7-9---7---9-7-9----|
E|--7-------------7--------------|

G|-------------------------------|
D|------9-7-6---------6---6/7----|
A|----7-------7-9---7---9--------|
E|--7-------------7--------------|

G|-------------------------------|
D|------9-7-6--------------------|
A|----7-------7-9----------------|
E|--7-------------7--------------|

G|------------------------------------------|
D|-------------11\9-------------------------|
A|----11h9-9h7------11\9-11\7---------------|
E|--7--------------------------7h9-9h7-7----|

Verse 2:

Mejo hihina ulit ung bass
Same tabs lang nung verse 1

G|--------------------------------------------------|
D|-------------------6---------------------6--------|
A|--/77777777777---7---9-7-66666666666---6---9-7----|
E|---------------7---------------------7------------|
							2x
G|--------------------------------------------------|
D|--------------------------------------------------|
A|--44444444444---4-6-7-6-----------6666-9999-------|
E|--------------5---------7777-9999-----------------|


Refrain 2:

G|------------------------------|
D|------------------------------|
A|------------------------------|
E|--5--/9-7--7-/11-9--5--/9-7---|

Chorus:

Timing lang ang kailangan dito..check nyo din kung tama
16 counts bawat chord

G|----------------------------------------------------|
D|--999-5-7-------------------------------------------|
A|----------7-9-5-7777777777777777-/9999999999999999--|
E|----------------------------------------------------|
							  2x
G|----------------------------------------------------|
D|----------------------------------------------------|
A|--/4444444444444444-/66666666-/99999999-------------|
E|----------------------------------------------------|

Adlib:

Itong adlib pinagdugtong na verse at refrain lang..
Ang magkasabay dito yung bass at rhythm.. tapos drums
At lead..magkaiba kasi ang beat nila, mabilis yung
Bass at rhythm..getz?basta pakinggan nyo..


G|--------------------------------------------------|
D|-------------------6---------------------6--------|
A|--/77777777777---7---9-7-66666666666---6---9-7----|
E|---------------7---------------------7------------|
							2x
G|--------------------------------------------------|
D|--------------------------------------------------|
A|--44444444444---4-6-7-6-----------6666-9999-------|
E|--------------5---------7777-9999-----------------|

G|-------------------------------|
D|------9-7-6---------6----------|
A|----7-------7-9---7---9-7-9----|
E|--7-------------7--------------|

G|-------------------------------|
D|------9-7-6---------6---6/7----|
A|----7-------7-9---7---9--------|
E|--7-------------7--------------|

G|-------------------------------|
D|------9-7-6--------------------|
A|----7-------7-9----------------|
E|--7-------------7--------------|

Chorus:

G|----------------------------------------------------|
D|--999-5-7-------------------------------------------|
A|----------7-9-5-7777777777777777-/9999999999999999--|
E|----------------------------------------------------|
							  2x
G|----------------------------------------------------|
D|----------------------------------------------------|
A|--/4444444444444444-/66666666-/99999999-------------|
E|----------------------------------------------------|

Adlib:

G|--------------------------------------------------|
D|-------------------6---------------------6--------|
A|--/77777777777---7---9-7-66666666666---6---9-7----|
E|---------------7---------------------7------------|

G|--------------------------------------------------|
D|--------------------------------------------------|
A|--44444444444---4-6-7-6-----------6666-9999-------|
E|--------------5---------7777-9999-----------------|


Verse:

G|--------------------------------------------------|
D|-------------------6---------------------6--------|
A|--/77777777777---7---9-7-66666666666---6---9-7----|
E|---------------7---------------------7------------|
							2x
G|--------------------------------------------------|
D|--------------------------------------------------|
A|--44444444444---4-6-7-6-----------6666-9999-------|
E|--------------5---------7777-9999-----------------|

Refrain:

G|------------------------------|
D|------------------------------|
A|------------------------------|
E|--5--/9-7--7-/11-9--5--/9-7---|

Outro:

One set of chords ulit then pasok

G|--------------------------------------|
D|--------------------------------------|
A|--------------------------------------|
E|--0000000000000000--5555555555555555--|
					   4x
G|--------------------------------------|
D|--------------------------------------|
A|--------------------------------------|
E|--7777777777777777--------------------|

G|----------------------|
D|----------------------|
A|----------------------|
E|--2222--1111-0000-----|


Legends:
h – hammer
/ - slide up
\ - slide down

            
            
Suggest correction
Creating personal tab
Creating personal tab
You can edit any tab online and save it as your Personal.

You can edit, replace or remove any tab part or add personal notes – all changes will be seen only by you.

Personal tabs can be accessed anytime from any device, even offline.
Learn more »
Give kudos to tab author, rate the tab!
1 2 3 4 5
comments
print report bad tab
1 comment total.
0 reply
yuichi:3 10 Mar 07, 2008 04:35 AM

wala bang may tab ng lead nito? yung full po

guest
You may want to rate the tab now too:
select rating
Wanna post a correction for this tab? Suggest correction