Oops, an error
Loading. Please wait.

Please Be Patient With Me solo tab

version 2
version 2

Solo

Whole song

by Wilco
107 views 1 this week
no commentswrite comment
1 2 3 4 5
3 more votes to show rating
add to favorites
×
Save as Personal and add changes to this tab that will be seen only by you. Learn more ›
×
You can save this tab as Personal to edit and correct it or add notes. All changes will be seen only by you. Learn more »
launch autoscroll
font size
0
reset
how to read this tab
guitar tuner
edit
Autoscroll
slow
fast
+/-
esc
set tempo
stop
Author
Please Be Patient With Me Guitar Solo

Standard Tuning

Capo at 3rd fret

The capo is not necessary if you’re just playing the solo, but the acoustic parts are played with a capo
on the third fret, so I thought I’d just transpose the notes to accommodate for that!

Starts around 1:45
e|---------------------------------------------------------|
B|---------------------------------------------------------|
G|----9~---------------------------7-----------------------|
D|---------------9~---9h10p9\7~--------7/9\5---------------|
A|---------------------------------------------------------|
E|---------------------------------------------------------|

e|---------------------------------------------------------|
B|---------------------------------------------------------|
G|---------------------------------------------------------|
D|----7~--5h7---5-------5----------------------------------|
A|-----------------5/7----5----3\2----0--------------------|
E|---------------------------------------3-----------------|

e|---------------------------------------------------------|
B|---------------------------------------------------------|
G|-----------------7b9br7p5--9-----------------------------|
D|---/7~---\0-----------------------7p5~-------------------|
A|---------------------------------------------------------|
E|---------------------------------------------------------|

      Let notes ring
e|---------------------------------------------------------|
B|-------------------------6---6---------------------------|
G|-----6~--------7-----------7-----7/9~--------------------|
D|---7~--------8------8/9--------9-------------------------|
A|---------------------------------------------------------|
E|---------------------------------------------------------|

And that’s it! Hope it helps :)

            
            
Suggest correction
Creating personal tab
Creating personal tab
You can edit any tab online and save it as your Personal.

You can edit, replace or remove any tab part or add personal notes – all changes will be seen only by you.

Personal tabs can be accessed anytime from any device, even offline.
Learn more »
Give kudos to tab author, rate the tab!
1 2 3 4 5
comments
print report bad tab
guest
You may want to rate the tab now too:
select rating
Wanna post a correction for this tab? Suggest correction