Oops, an error
Loading. Please wait.

Sky Blue Sky tab

by Wilco
86,591 views 129 this week
10 commentsread comments
1 2 3 4 5
x 31
add to favorites
×
Save as Personal and add changes to this tab that will be seen only by you. Learn more ›
×
You can save this tab as Personal to edit and correct it or add notes. All changes will be seen only by you. Learn more »
launch autoscroll
font size
0
reset
how to read this tab
guitar tuner
edit
Autoscroll
slow
fast
+/-
esc
set tempo
stop
Artist: Wilco
Song: Sky Blue Sky
Album: Sky Blue Sky

This is my first tab, but I'm pretty positive that it's 100% correct.

Chords Used:

     C           Am           Dm          F         Fmaj7         G
e|---0---     ---0---      ---1---     ---1---     ---0---     ---3---|
B|---1---     ---1---      ---3---     ---1---     ---1---     ---3---|
G|---0---     ---2---      ---2---     ---2---     ---2---     ---0---|
D|---2---     ---2---      ---0---     ---3---     ---3---     ---0---|
A|---3---     ---0---      ---0---     ---0---     ---0---     ---2---|
E|---0---     ---0---      ---0---     ---0---     ---0---     ---3---|

     Em        G#dim7
e|---0---     ---7---|
B|---0---     ---6---|
G|---0---     ---7---|
D|---2---     ---6---|
A|---2---     -------|
E|---0---     -------|


[Intro]

C Am Dm F C


[Verse 1]

C                               Am
Oh, the band marched on in formation
    Dm        F       G
The brass was phasing tunes I couldn’t place
Fmaj7           Em       Am
Windows open and raining in
Dm              F              C
Maroon, yellow, blue, gold and gray


[Verse 2]

C                 Am
The drunks were ricocheting
Dm              F
The old buildings downtown
      G
Empty so long ago
Fmaj7             Em      Am
Windows broken and dreaming
Dm           F               C
So happy to leave what was my home


[Chorus]

G
With a sky blue sky
     G#dim7
This rotten time
         Am                Dm
Wouldn’t seem so bad to me now
G
Oh, I didn’t die
           G#dim7
I should be satisfied
     Am
I survived
                       Dm
That's good enough for now


[Solo]
(verse chords during solo)

e|-------------------------------------------------------------|
B|-------------------------------------------------------------|
G|------------------------5-7/9-9h10p9-7-5---------------------|
D|----------9~-9h10p9-7-9------------------7/9-7/9-5-----5-----|
A|-5h7--5-7------------------------------------------5-7---7p5-|
E|-------------------------------------------------------------|

e|----------------------------------|
B|-----5-------5-------5------------|
G|-------5-7-----5-7-----5----------|
D|-5/7-------7-------7-----9h10p9-7-|
A|----------------------------------|
E|----------------------------------|

e|------------------------------------------------|
B|------------------------------------------------|
G|---------------------------------------------5~-|
D|-----------------------------------------5h7----|
A|-3-5-5h7p5-3--3-5-5h7p5-3-5h7p5-3~--3h5/7-------|
E|------------------------------------------------|


[Chorus]

G
With a sky blue sky
     G#dim7
This rotten time
         Am                Dm
Wouldn’t seem so bad to me now
G
Oh, I didn’t die
           G#dim7
I should be satisfied
     Am
I survived
                       Dm
That's good enough for now


************************************

| h  Hammer-on
| p  Pull-off
| /  Slide up
| ~  Vibrato

************************************

            
            
Suggest correction
Creating personal tab
Creating personal tab
You can edit any tab online and save it as your Personal.

You can edit, replace or remove any tab part or add personal notes – all changes will be seen only by you.

Personal tabs can be accessed anytime from any device, even offline.
Learn more »
comments
print report bad tab
10 comments total. Showing first comments.
0 reply
keneticshark24 135 May 31, 2007 06:01 AM

Awesome tab!

I think the tab's missing the chords played during the solo - there's supposed to be something there, I think..>_>; Just something minor I thought I'd point out.

With that said, excellent tab. Now, just to wait for an equally awesome bass tab..

0 reply
jonesmaster 31 Jun 01, 2007 05:47 PM

The G7 is actually G#/Emaj (I think that's the proper name)

EADGBe
4x2450

0 reply
keneticshark24 135 Jun 10, 2007 01:16 AM

Crap, misread. My bad.

guest
Wanna post a correction for this tab? Suggest correction