Oops, an error
Loading. Please wait.

Wilco The Song intro tab

version 1
version 1

Intro

Whole song

by Wilco
4,317 views 1 this week
no commentswrite comment
1 2 3 4 5
2 more votes to show rating
add to favorites
×
Save as Personal and add changes to this tab that will be seen only by you. Learn more ›
×
You can save this tab as Personal to edit and correct it or add notes. All changes will be seen only by you. Learn more »
launch autoscroll
font size
0
reset
how to read this tab
guitar tuner
edit
Autoscroll
slow
fast
+/-
esc
set tempo
stop
-------------------------------------------------------------------------------
                           WILCO (THE SONG) - Wilco
-------------------------------------------------------------------------------
Tabbed by: jvwald

This tab is based on this YouTube video:
http://www.youtube.com/watch?v=dcX-3x7Rdoc

If you find this tab helpful, check out the other Wilco/Tweedy tabs I've posted.

Tuning: Drop D

A# 88(12)xxx
Dadd4 004000
Dsus2 002000
D 000000
A 77(11)xxx
Em 225xxx
G 558xxx
Bm 99(12)xxx

riff 1
e|-----------------------------------|
B|-----------------------------------|
G|-----------------------------------|
D|--9-9-7-0-7-7-5-0-7-7-9--7---7\5-0-|
A|--x-x-x-0-x-x-x-0-9-9-10-9---9\7-0-|
D|--5-5-5-0-3-3-3-0-0-0-0--0---0---0-|

riff 1 x 4

riff 1
Are you under the impression
riff 1
This isn't your life?
riff 1
Do you dabble in depression?
A#                     Dadd4   Dsus2   D
Is someone twisting a knife in your back?
A               Dadd4   Dsus2   D
Are you being attacked?
A              Em
Oh, this is a fact
                  G
That you need to know oh, oh, oh, oh

riff 2
Wilco, Wilco, Wilco will love you, baby

riff 2
e|-----------------------|
B|-----------------------|
G|-----------------------|
D|-9--7---9--7---9--7\-4-|
A|-10-9---10-9---10-9\-5-|
E|-0--0---0--0---0--0--0-|

riff 1 x 2

riff 1
Are times getting tough?
riff 1
Are the roads you travel rough?
riff 1
Have you had enough of the old?
A#                     Dadd4   Dsus2   D
Tired of being exposed to the cold?
A               Dadd4   Dsus2   D
Stare at your stereo
A              Em
Put on your headphones
G
Before you explode oh, oh, oh, oh

riff 2
Wilco, Wilco, Wilco will love you, baby

riff 2
e|-----------------------|
B|-----------------------|
G|-----------------------|
D|-9--7---9--7---9--7\-4-|
A|-10-9---10-9---10-9\-5-|
E|-0--0---0--0---0--0--0-|

riff 1

G   A

Bm                                       Dadd4   Dsus2   D
There's so many wars that just can't be won oh, oh, oh
Bm                        Dadd4   Dsus2   D
Even before the battle's begun oh, oh, oh
Bm                               Em
This isn't all of our arms open wide
                            G
A sonic shoulder for you to cry ah, ah, ah, oh

riff 3
Wilco Wilco will love you, baby

riff 3
e|----------------|
B|----------------|
G|----------------|
D|-9--7---9--7\-4-|
A|-10-9---10-9\-5-|
E|-0--0---0--0--0-|

riff 1 x 3

A#                     Dadd4   Dsus2   D
Is someone twisting a knife in your back?
A               Dadd4   Dsus2   D
Are you being attacked?
A              Em
Oh, this is a fact
                   G
That you need to know oh, oh, oh, oh

riff 4
Wilco, Wilco, Wilco, Wilco will love you, baby

riff 4
e|------------------------------|
B|------------------------------|
G|------------------------------|
D|-9--7---9--7---9--7---9--7\-4-|
A|-10-9---10-9---10-9---10-9\-5-|
E|-0--0---0--0---0--0---0--0--0-|

riff 1


************************************

| /   slide up
| \   slide down
| h   hammer-on
| p   pull-off
| ~   vibrato
| +   harmonic
| x   Mute note
| b   Bend
| pb  Pre-bend
| br  Bend release
| pbr Pre-bend release
| brb Bend release bend

************************************

            
            
Suggest correction
Creating personal tab
Creating personal tab
You can edit any tab online and save it as your Personal.

You can edit, replace or remove any tab part or add personal notes – all changes will be seen only by you.

Personal tabs can be accessed anytime from any device, even offline.
Learn more »
Give kudos to tab author, rate the tab!
1 2 3 4 5
comments
print report bad tab
guest
You may want to rate the tab now too:
select rating
Wanna post a correction for this tab? Suggest correction