Oops, an error
Loading. Please wait.

Gemini tab

version 2
version 2

Whole song

658 views 3 this week
no commentswrite comment
1 2 3 4 5
x 3
add to favorites
×
Save as Personal and add changes to this tab that will be seen only by you. Learn more ›
×
You can save this tab as Personal to edit and correct it or add notes. All changes will be seen only by you. Learn more »
launch autoscroll
font size
0
reset
how to read this tab
guitar tuner
edit
Autoscroll
slow
fast
+/-
esc
set tempo
stop
Wild Nothing - Gemini
Track 12 from the album "Gemini" (Captured Tracks 2010).

Tabbed by Isaac Murguia, March 2016.
Originally uploaded to Ultimate-Guitar.com
Contact: www.youtube.com/user/Goadiroth

*** CAPO on 4th Fret (tabbed relative to capo).
*** You can play the lead with or without the capo.
*** I couldn't figure out the rhythm for the 1st half of the song, sorry.

INTRO/VERSE:          [x2]                     [x2]
e|------------------------|------------------------|
B|------------------------|-3----3-----------------|
G|-4-2--4-2------0----0---|---4----4-2--2-0--2-0-2-|
D|----------2--2----2---2-|------------------------|
A|------------------------|------------------------|
E|------------------------|------------------------| [x4]

CHORUS:
e|--------------------------|
B|--------------------------|
G|------0----/4--4-2-0-2--0-|
D|-0-2----2-----------------|
A|--------------------------|
E|--------------------------| [x8]

Repeat INTRO/VERSE
Repeat CHORUS

BREAK:
e|-0-0-00---0-000000---0-0-00--0-000-000-|
B|-0-0-00---1-111100---0-0-00--0-000-000-|
G|-0-0-00--x2-222222--x0-0-00-x0-000-000-|
D|-0-0-00--x2-222222--x2-2-22-x2-222-222-|
A|-2-2-22--x0-000000--x2-2-22-x2-222-222-|
E|-3-3-33--x----------x0-0-00-x0-000-000-| [x2]

Repeat CHORUS (with BREAK chords in background)

BRIDGE:
  Lead
e|-----------------------------------------------|
B|-----------------------------------------------|
G|-4-4--555--77-7-777--99-99999--1212-1212121212-| "12121212" = 12-12 not 1-2-1-2
D|-----------------------------------------------|
A|-----------------------------------------------|
E|-----------------------------------------------| [x2]
  Rhythm
    Don't know exactly what he plays
    But you can play along with chords F and G (relative to capo)

OUTRO: (repeat until the end)
  Lead
e|----------------------------------------------------|
B|----------------------------------------------------|
G|------------------/4-4-5-4----4------0-0-----0-0----|
D|-----2220-000-00------------5---5-2------0-0--------|
A|-3-3----------------------------------------------3-|
E|----------------------------------------------------|

  Rhythm (strumming is probably not exact but close enough)
e|-0-0-00x-0-00x--0-0x-0-|-0-0-00x-0/-0--0-x--0---0-x-0-|
B|-1-1-11x-0-00x--0-0x-0-|-1-1-11x-1/-8--8-x--8---8-x-0-|
G|-2-2-22x-0-00x--0-0x-0-|-0-0-00x-2/-9--9-x--9---9-x-0-|
D|-3-3-33x-0-00x--0-0x-0-|-2-2-22x-3/-10-10x--10--10x-0-|
A|-3-3-33x---22x--2-2x---|-3-3-33x----------------------|
E|-----------33x--3-3x---|------------------------------|

End. Please rate! :D

            
            
Suggest correction
Creating personal tab
Creating personal tab
You can edit any tab online and save it as your Personal.

You can edit, replace or remove any tab part or add personal notes – all changes will be seen only by you.

Personal tabs can be accessed anytime from any device, even offline.
Learn more »
Give kudos to tab author, rate the tab!
1 2 3 4 5
comments
print report bad tab
guest
You may want to rate the tab now too:
select rating
Wanna post a correction for this tab? Suggest correction