Oops, an error
Loading. Please wait.

New Light bass

52 views 3 this week
no commentswrite comment
1 2 3 4 5
3 more votes to show rating
add to favorites
×
Save as Personal and add changes to this tab that will be seen only by you. Learn more ›
×
You can save this tab as Personal to edit and correct it or add notes. All changes will be seen only by you. Learn more »
launch autoscroll
font size
0
reset
guitar tuner
edit
Autoscroll
slow
fast
+/-
esc
set tempo
stop
---------------------------------------------------------------------------------------------
                              New Light-Wild Party (Bass Tab)
---------------------------------------------------------------------------------------------

Tabbed by:Mark Donohue
Email:mwdonohue97@gmail.com

Tuning:Standard

__________________________________________________________________________________________________________


[Intro] (0:00-0:06)

G|-------------------------------|-------------------------------|
D|--5-5-5--5-5-5---5-5-5--5-5-5--|--5-5-5--5-5-5---5-5-5--5-5-5--|
A|-------------------------------|-------------------------------|
E|-------------------------------|-------------------------------|


[Verse 1] (0:06-0:31)

G|-------------------------------|-------------------------------|  ***
D|--5-5-5--5-5-5---5-5-5--5-5-5--|--5-5-5--5-5-5---5-5-5--5-5-5--|    *
A|-------------------------------|-------------------------------|    *
E|-------------------------------|-------------------------------|    *
                                                                      * (Play x2)
G|-------------------------------|-------------------------------|    *
D|-------------------------------|-------------------------------|    *
A|--3-3-3--3-3-3---3-3-3--3-3-3--|--3-3-3--3-3-3---3-3-3--3-3-3--|    *
E|-------------------------------|-------------------------------|  ***


[Pre-Chorus] (0:31-0:42)

G|------------------------------|-----------------------------|
D|------------------------------|-----------------------------|
A|--5-5-5--5-5---5-5-5--5-5/7\--|--3-3-3--3-3---3-3-3--3-3/7--|
E|------------------------------|-----------------------------|

G|------------------------------|-----------------------------|
D|------------------------------|-----------------------------|
A|--5-5-5--5-5---5-5-5--5-5/7\--|--3-3-3--3-3---3-3-3--3-3\---|
E|------------------------------|-----------------------------|


[Chorus] (0:43-1:08)

G|-----------------------------------|-----------------------------------|  
D|-----------------------------------|-----------------------------------|    
A|-----------------------------------|-----------------------------------|   
E|--3-3-3-3-3-3-3-3-3-3-3-3-3-3-3-3--|--3-3-3-3-3-3-3-3-3-3-3-3-3-3-3-3/-|    
                                                                               
G|-----------------------------------|-----------------------------------|    
D|-----------------------------------|-----------------------------------|    
A|-----------------------------------|-----------------------------------|    
E|--8-8-8-8-8-8-8-8-8-8-8-8-8-8-8-8--|--8-8-8-8-8-8-8-8-8-8-8-8-8-8-8-8--| 

G|---------------------------------------------------|---------------------------------------------------|  
D|---------------------------------------------------|---------------------------------------------------|    
A|--10-10-10-10-10-10-10-10-10-10-10-10-10-10-10-10--|--10-10-10-10-10-10-10-10-10-10-10-10-10-10-10-10--|   
E|---------------------------------------------------|---------------------------------------------------|    
                                                                               
G|-----------------------------------|-------------------------------------|    
D|-----------------------------------|-------------------------------------|    
A|-----------------------------------|-------------------------------------|    
E|--8-8-8-8-8-8-8-8-8-8-8-8-8-8-8-8--|--8-8-8-8-8-8-8-8-8-8-8-8-8-8-8-8\3--|  


[Verse 2] (1:11-1:33)

G|------------------------------|------------------------------|
D|------------------------------|--5-5-5--5-5----5-5-5--5-5----|
A|------------------------------|------------------------------|
E|------------------------------|------------------------------|

G|------------------------------|------------------------------|
D|------------------------------|------------------------------|
A|--3-3-3--3-3----3-3-3--3-3----|--3-3-3--3-3----3-3-3--3-3----|
E|------------------------------|------------------------------|

G|------------------------------|------------------------------|
D|--5-5-5--5-5----5-5-5--5-5----|--5-5-5--5-5----5-5-5--5-5----|
A|------------------------------|------------------------------|
E|------------------------------|------------------------------|

G|------------------------------|------------------------------|
D|------------------------------|------------------------------|
A|--3-3-3--3-3----3-3-3--3-3----|--3-3-3--3-3----3-3-3--3-3----|
E|------------------------------|------------------------------|


[Pre-Chorus] (1:33-1:44)

G|------------------------------|-----------------------------|
D|------------------------------|-----------------------------|
A|--5-5-5--5-5---5-5-5--5-5/7\--|--3-3-3--3-3---3-3-3--3-3/7--|
E|------------------------------|-----------------------------|

G|------------------------------|-----------------------------|
D|------------------------------|-----------------------------|
A|--5-5-5--5-5---5-5-5--5-5/7\--|--3-3-3--3-3---3-3-3--3-3\---|
E|------------------------------|-----------------------------|


[Chorus] (1:45-2:09)

G|-----------------------------------|-----------------------------------|  
D|-----------------------------------|-----------------------------------|    
A|-----------------------------------|-----------------------------------|   
E|--3-3-3-3-3-3-3-3-3-3-3-3-3-3-3-3--|--3-3-3-3-3-3-3-3-3-3-3-3-3-3-3-3/-|    
                                                                               
G|-----------------------------------|-----------------------------------|    
D|-----------------------------------|-----------------------------------|    
A|-----------------------------------|-----------------------------------|    
E|--8-8-8-8-8-8-8-8-8-8-8-8-8-8-8-8--|--8-8-8-8-8-8-8-8-8-8-8-8-8-8-8-8--| 

G|---------------------------------------------------|---------------------------------------------------|  
D|---------------------------------------------------|---------------------------------------------------|    
A|--10-10-10-10-10-10-10-10-10-10-10-10-10-10-10-10--|--10-10-10-10-10-10-10-10-10-10-10-10-10-10-10-10--|   
E|---------------------------------------------------|---------------------------------------------------|    
                                                                               
G|-----------------------------------|-------------------------------------|    
D|-----------------------------------|-------------------------------------|    
A|-----------------------------------|-------------------------------------|    
E|--8-8-8-8-8-8-8-8-8-8-8-8-8-8-8-8--|--8-8-8-8-8-8-8-8-8-8-8-8-8-8-8-8\3--| 


[Bridge] (2:10-2:37)

G|-----------------------------------|-----------------------------------|
D|------9-------9-------9-------9----|------5-------5-------5-------5----|
A|--7-7---7-7-7---7-7-7---7-7-7---7--|--3-3---3-3-3---3-3-3---3-3-3---3--|
E|-----------------------------------|-----------------------------------|

G|-------------------------|--------------------------|
D|-------------------------|--------------------------|
A|-------------------------|--5---5-5-5--5---5-5-5----|
E|--3--3-3-3--3---3-3-3----|--------------------------|

G|-----------------------------------|-----------------------------------|
D|------9-------9-------9-------9----|------5-------5-------5-------5----|
A|--7-7---7-7-7---7-7-7---7-7-7---7--|--3-3---3-3-3---3-3-3---3-3-3---3--|
E|-----------------------------------|-----------------------------------|

G|-------------------------|----------------------------|
D|-------------------------|----------------------------|
A|-------------------------|----------------------------|
E|--3--3-3-3--3---3-3-3----|--2---2-2-2--2---2-2-2/8----|


[Chorus] (2:52-3:29)

G|-----------------------------------|-----------------------------------|
D|-----------------------------------|-----------------------------------|
A|-----------------------------------|-----------------------------------|
E|--3--------------------------------|-----------------------------------|

G|-----------------------------------|-----------------------------------|
D|-----------------------------------|-----------------------------------|
A|--3-3-3-3-3-3-3-3-3-3-3-3-3-3-3-3--|--3-3-3-3-3-3-3-3-3-3-3-3-3-3-3-3--|
E|-----------------------------------|-----------------------------------|

G|-----------------------------------|-----------------------------------|  
D|-----------------------------------|-----------------------------------|    
A|-----------------------------------|-----------------------------------|   
E|--3-3-3-3-3-3-3-3-3-3-3-3-3-3-3-3--|--3-3-3-3-3-3-3-3-3-3-3-3-3-3-3-3/-|    
                                                                               
G|-----------------------------------|-----------------------------------|    
D|-----------------------------------|-----------------------------------|    
A|-----------------------------------|-----------------------------------|    
E|--8-8-8-8-8-8-8-8-8-8-8-8-8-8-8-8--|--8-8-8-8-8-8-8-8-8-8-8-8-8-8-8-8--| 

G|---------------------------------------------------|---------------------------------------------------|  
D|---------------------------------------------------|---------------------------------------------------|    
A|--10-10-10-10-10-10-10-10-10-10-10-10-10-10-10-10--|--10-10-10-10-10-10-10-10-10-10-10-10-10-10-10-10--|   
E|---------------------------------------------------|---------------------------------------------------|    
                                                                               
G|-----------------------------------|-------------------------------------|    
D|-----------------------------------|-------------------------------------|    
A|-----------------------------------|-------------------------------------|    
E|--8-8-8-8-8-8-8-8-8-8-8-8-8-8-8-8--|--8-8-8-8-8-8-8-8-8-8-8-8-8-8-8-8\3--| 


************************************

| /   Slide up
| \   Slide down

************************************


            
            
Suggest correction
Creating personal tab
Creating personal tab
You can edit any tab online and save it as your Personal.

You can edit, replace or remove any tab part or add personal notes – all changes will be seen only by you.

Personal tabs can be accessed anytime from any device, even offline.
Learn more »
Give kudos to tab author, rate the tab!
1 2 3 4 5
comments
print report bad tab
guest
You may want to rate the tab now too:
select rating
Wanna post a correction for this tab? Suggest correction