Oops, an error
Loading. Please wait.

I Dont Feel It Anymore tab

version 6
version 6

Whole song

40 views 1 this week
no commentswrite comment
1 2 3 4 5
3 more votes to show rating
add to favorites
×
Save as Personal and add changes to this tab that will be seen only by you. Learn more ›
×
You can save this tab as Personal to edit and correct it or add notes. All changes will be seen only by you. Learn more »
launch autoscroll
font size
0
reset
how to read this tab
guitar tuner
edit
Autoscroll
slow
fast
+/-
esc
set tempo
stop
Author
Difficulty
About this tab version
This is the tab for the accompanying banjo part. Was this info helpful? Yes No
I use a four-stringed tenor banjo tuned so that the four strings are 
the same notes as the top four strings on the accompanying guitar, 
which is in standard tuning with a capo on the 5th fret. This banjo 
tuning is a form of "Chicago Tuning". Since the banjo is tuned the 
same way as the guitar, feel free to play the part on the top four
strings of a guitar if you don't have a banjo!

Take note of the time signature. The guitar plays in 6/8, but the 
banjo plays a syncopated 4/4 over the 6/8. It may take some practice. 
The tab below is written in 6/8, so every "-" is a sixteenth note.

Tuning: G C E A

[Intro]
(No bass)

[Verse 1] (William signing)
(No bass)

[Interlude](1x) 
(played in between the first and second verse)
A|------------|------------|------------|------------|
E|------1-----|------1-----|---------0--|------------|
C|---0-----0--|---0-----0--|---0--2-----|2--0--------|
G|2-----------|0-----------|0-----------|------4--0--|

A|------------|------------|------------|------------|
E|------1-----|------1-3-1-|0--------0--|------------|
C|---0-----0--|---0--------|---0--------|2-----------|
G|2-----------|0-----------|------0-----|------0-----|

[Verse 2](Priscilla singing) (2x)
A|------------|------------|------------|------------|
E|------1-----|------1-----|------0-----|------------|
C|---0-----0--|---0-----0--|---0-----0--|2--0--------|
G|2-----------|0-----------|0-----------|------4--0--|

A|------------|------------|------------|------------|
E|------1-----|------1-----|------0-----|------------|
C|---0-----0--|---0-----0--|---0-----0--|2-----------|
G|2-----------|0-----------|0-----------|------4-----|

[Chorus] (2x)
A|------------|------------|------------|------------|
E|------1-----|------0-----|------------|------------|
C|---0-----0--|---0----0-2-|---0--2-----|0-----------|
G|2-2--2--2-2-|0-0--0------|0-0--0---0--|---4--2--0--|

(1st Time Through)
A|------------|------------|------------|------------|
E|------1-----|------0-----|------------|--03----03--|
C|---0-----0--|---0-----0--|---0--2-----|2-----------|
G|2-2--2--2-2-|0-0--0--0-0-|0-0--0------|------4-----|

(2nd Time Through)
A|------------|------------|------------|------------|
E|------1-----|------0-----|------3-----|------------|
C|---0-----0--|---0-----0--|--02--------|------0-----|
G|2-2--2--2-2-|0-0--0--0-0-|0-----------|--------4-0-|

[Verse 3]
A|------------|------------|------------|------------|
E|------1-----|------1-----|------0-----|------------|
C|---0-----0--|---0-----0--|---0-----0--|2--0--------|
G|2-----------|0-----------|0-----------|------4--0--|

A|------------|------------|------------|------------|
E|------1-----|------1-----|------0-----|------------|
C|---0-----0--|---0-----0--|---0-----0--|2-----------|
G|2-----------|0-----------|0-----------|------4-----|

A|------------|------------|------------|------------|
E|------1-----|------1-----|---------0--|------------|
C|---0-----0--|---0-----0--|---0--2-----|2--0--------|
G|2-----------|0-----------|0-----------|------4--0--|

A|------------|------------|------------|------------|
E|------1-----|------1-3-1-|0--------0--|------------|
C|---0-----0--|---0--------|---0--------|2-----------|
G|2-----------|0-----------|------0-----|------------|

[Chorus] (2x)
A|------------|------------|------------|------------|
E|------1-----|------0-----|------------|------------|
C|---0------0-|---0-----02-|---0--2-----|0-----------|
G|2-2-2---2---|0-0-0---0---|0-0-0----0--|---4--2--0--|

(1st Time Through)
A|------------|------------|------------|------------|
E|------1-----|------0-----|------3-----|--0-3-------|
C|---0-----0--|---0-----0--|---0-----0--|0-----------|
G|2-2-2---2-2-|0-0-0---0-0-|0-----------|------4-----|

(2nd Time Through)
A|------------|------------|------------|------------|------------|
E|------1-----|------------|---3--------|---0--3-----|---0--3-----|
C|---0-----0--|---0--2--0--|------2-----|2-----------|2-----------|
G|2-2-2---2-2-|0-0--0------|4-----------|------------|------------|

            
            
Suggest correction
Creating personal tab
Creating personal tab
You can edit any tab online and save it as your Personal.

You can edit, replace or remove any tab part or add personal notes – all changes will be seen only by you.

Personal tabs can be accessed anytime from any device, even offline.
Learn more »
Give kudos to tab author, rate the tab!
1 2 3 4 5
comments
print report bad tab
guest
You may want to rate the tab now too:
select rating
Wanna post a correction for this tab? Suggest correction