Oops, an error
Loading. Please wait.

Its Not True tab

version 3
version 3

Whole song

3,907 views 1 this week
1 commentread comment
1 2 3 4 5
3 more votes to show rating
add to favorites
×
Save as Personal and add changes to this tab that will be seen only by you. Learn more ›
×
You can save this tab as Personal to edit and correct it or add notes. All changes will be seen only by you. Learn more »
launch autoscroll
font size
0
reset
how to read this tab
guitar tuner
edit
Autoscroll
slow
fast
+/-
esc
set tempo
stop
Artist: William Fitzsimmons
Song: Its Not True (Live @ DeepRockDrive)
http://www.youtube.com/watch?v=Aqvl_jQi2gY
Tabbed by: Narinder Singh
email: cstrike_Face@hotmail.com

Thought i would give this a shot. Capo on 1. May not be perfectly correct but it sounds 
decent. This is the way i play it

Intro/Verse (he does many variations w/ hammer ons, just fiddle)
E|---------------------------------------------------------|
B|-----------------------------------1-------1-------------|
G|---------0------------0----------0---0----0-0------------|
D|-------0---0--------0---0------2---------2---------------|
A|----3------------0h2---------0----------3----------------|
E|--1------------3-----------------------------------------|

E|---------------------------------------------------------|
B|------------------------0-----1--------1-----------------|
G|---------0----------0h2------0-0-----0---0---------------|
D|-------0---0------0---------2------2---------------------|
A|----3----------------------0-----3-----------------------|
E|--1------------3-----------------------------------------|


Chorus PM ('every day is another chance to bury my regret...)
E|---------------------------------------------------------|
B|--3--1--1---3---3----------------------------------------|
G|--0--0--0---0---0----------------------------------------|
D|--0--2--2---0---0----------------------------------------|
A|--0-----0h3-0h2-0h2--------------------------------------|
E|--3---------3---3----------------------------------------|

Verse2 PM (same chords as the intro)
E|---------------------------------------------------------|
B|------3---1---1------------------------------------------|
G|------0---0---0------------------------------------------|
D|------0---2---2------------------------------------------|
A|--3---0h2-----0h3p0--------------------------------------|
E|--1---3--------------------------------------------------|

Ending is the same as the intro.
I hope this was useful.

            
            
Suggest correction
Creating personal tab
Creating personal tab
You can edit any tab online and save it as your Personal.

You can edit, replace or remove any tab part or add personal notes – all changes will be seen only by you.

Personal tabs can be accessed anytime from any device, even offline.
Learn more »
Give kudos to tab author, rate the tab!
1 2 3 4 5
comments
print report bad tab
1 comment total.
0 reply
MintSauceMunkeh 10 Jul 04, 2009 01:42 PM

that's awesome man :D THAAAAANKS ur great, tab more (y)

guest
Wanna post a correction for this tab? Suggest correction