Oops, an error
Loading. Please wait.

Passion Play tab

version 1
version 1

Whole song

28,368 views 21 this week
3 commentsread comments
1 2 3 4 5
x 6
add to favorites
×
Save as Personal and add changes to this tab that will be seen only by you. Learn more ›
×
You can save this tab as Personal to edit and correct it or add notes. All changes will be seen only by you. Learn more »
launch autoscroll
font size
0
reset
how to read this tab
guitar tuner
edit
Autoscroll
slow
fast
+/-
esc
set tempo
stop
Tabbed by: Jihem
Email: cannon_boy@live.fr

Tuning:

e > down to D
B > down to A
G
D
A
E > down to D

capo 1

This tab is the way William Fitzsimmons played this song on the Deep Rock Drive's Tv 
a beautiful acoustic version
of this song from his first record... enjoy!


INTRO/VERSE :

D ---------------------------------|
A ---------------------------------|
G ---------------------------------|
D ---------------------------------|
A ---0h2----2h4---4h5--------------|
D -----------------------5---------|

Repeat this many times (as you feel it) for the intro...
the others cords are played but I just can't notice it here..it's pretty easy
but you should listen many times the song to learn what cords to play and the order..

Here are the two variations he does

D ----4p0----5p0----7p0------------|
A ---------------------------------|
G ---------------------------------|
D ---------------------------------|
A --0h2-----2h4----4h5-------------|
D ---------------------------------|


D ----4p0----1p0----7p0------------|
A ---------------------------------|
G ---------------------------------|
D ---------------------------------|
A --0h2-----2h4----4h5-------------|
D ---------------------------------|


CHORUS :

D -------------------|
A -------------------|
G -------------------|
D -------------------|
A -----5-------------|
D ----0---5---9---7--|

D -----------------------------------|
A -----------------------------------|
G -----------------------------------|
D -----------------------------------|
A -----5---------------3-------------|
D ----0---5---9---7--------5---9---7-|


End :

Repeat the VERSE and finish on this :

D ----2h3-----------------------------|
A ------------------------------------|


Hope it's comprehensible and right!
Then enjoy playin' this great song!!

Jihem.

            
            
Suggest correction
Creating personal tab
Creating personal tab
You can edit any tab online and save it as your Personal.

You can edit, replace or remove any tab part or add personal notes – all changes will be seen only by you.

Personal tabs can be accessed anytime from any device, even offline.
Learn more »
comments
print report bad tab
3 comments total.
0 reply
MR_KNOT 10 Aug 05, 2011 10:38 AM

crap... i dont wanna figure out patterns D:

0 reply
MR_KNOT 10 Aug 05, 2011 10:47 AM

sigh... i'll just do my own *dispair* T_T

0 reply
bobista0 10 Apr 03, 2013 10:45 AM

D ----------0------------------------|
A ------------------0----------------|
G ------0-------0--------------------|
D --------0---0---0------------------|
A ---0h2-----------------------------|
D -----------------------------------|

The way how he finger strings.

guest
You may want to rate the tab now too:
select rating
Wanna post a correction for this tab? Suggest correction