Oops, an error
Loading. Please wait.

The Tide Pulls From The Moon tab

version 1
version 1

Whole song

590 views 3 this week
no commentswrite comment
1 2 3 4 5
1 last vote to show rating
add to favorites
×
Save as Personal and add changes to this tab that will be seen only by you. Learn more ›
×
You can save this tab as Personal to edit and correct it or add notes. All changes will be seen only by you. Learn more »
launch autoscroll
font size
0
reset
how to read this tab
guitar tuner
edit
Autoscroll
slow
fast
+/-
esc
set tempo
stop
Capo on 3rd fret.

Intro
E |-----------8----------------|-----------3----------------|
B |-----------------0----------|-----------------0----------|
G |--------5--------------0----|--------0--------------0----|
D |--------------------7-------|--------------------2-------|
A |--0-------------------------|----------------------------|
E |----------------------------|--0-------------------------|


----------------------------|----------------------------|
-----------------0----------|----------------------------|
-----------0h-2-----2p-0----|-----------0----------------|
--------0-------------------|-----------------0----(0)---|
----------------------------|--------3-------------------|
--3-------------------------|--1-------------------------|


-----------8----------------|-----------3----------------|
-----------------0----------|-----------------0----------|
--------5--------------0----|--------0--------------0----|
--------------------7-------|--------------------2-------|
--0-------------------------|----------------------------|
----------------------------|--0-------------------------|


----------------------------|----------------------------|
-----------3----------------|----------------------------|
-----------------0----------|-----0-----------0----------|
--------4--------------4----|-(4)--------4-----------4---|
--5-----------------5-------|--------5-----------5-------|
----------------------------|----------------------------|

Verse
-----------8----------------|-----------3----------------|
-----------------0----------|-----------------0----------|
--------5--------------0----|--------0--------------0----|
--------------------7-------|--------------------2-------|
--0-------------------------|----------------------------|
----------------------------|--0-------------------------|


----------------------------|----------------------------|
-----------------0----------|----------------------------|
-----------0h-2-----2p-0----|-----------0----------------|
--------0-------------------|-----------------0-----0----|
----------------------------|--------3-----------3-------|
--3-------------------------|--1-------------------------|


----------------------------|----------------------------|
------------0---------------|-----------0----------------|
-----------------0------0---|-----------------0-----0----|
---------2-----------2------|--------0-----------0-------|
--0-------------------------|----------------------------|
----------------------------|--3-------------------------|

----------------------------|----------------------------|
-----------3----------------|----------------------------|
-----------------0----------|-----0----------------------|
-----4-----------------4----|------------4-----4------4--|
--5-----5-----------5-------|--5-----5------5-----5------|
----------------------------|----------------------------|

-----------8----------------|-----------3----------------|
-----------------0----------|-----------------0----------|
--------5--------------0----|--------0--------------0----|
--------------------7-------|--------------------2-------|
--0-------------------------|----------------------------|
----------------------------|--0-------------------------|

----------------------------|----------------------------|
-----------------0----------|----------------------------|
-----------0h-2-----2p-0----|-----------0----------------|
--------0-------------------|-----------------0-----0----|
----------------------------|--------3-----------3-------|
--3-------------------------|--1-------------------------|

----------------------------|----------------------------|
------------0---------------|-----------0----------------|
-----------------0------0---|-----------------0-----0----|
---------2-----------2------|--------0-----------0-------|
--0-------------------------|----------------------------|
----------------------------|--3-------------------------|

----------------------------|----------------------------|
-----------3----------------|----------------------------|
-----------------0----------|----------------------------|
--------4--------------4----|----4-----4-----4-----4-----|
--5-----------------5-------|--5----5-----5-----5--------|
----------------------------|----------------------------|

Instrumental
-----------8----------------|-----------3----------------|
-----------------0----------|-----------------0----------|
--------5--------------0----|--------0--------------0----|
--------------------7-------|--------------------2-------|
--0-------------------------|----------------------------|
----------------------------|--0-------------------------|

----------------------------|----------------------------|
-----------------0----------|----------------------------|
-----------0h-2-----2p-0----|-----------0----------------|
--------0-------------------|-----------------0-----0----|
----------------------------|--------3-----------3-------|
--3-------------------------|--1-------------------------|

-----------8----------------|-----------3----------------|
-----------------0----------|-----------------0----------|
--------5--------------0----|--------0--------------0----|
--------------------7-------|--------------------2-------|
--0-------------------------|----------------------------|
----------------------------|--0-------------------------|

----------------------------|----------------------------|
-----------3----------------|----------------------------|
-----------------0----------|-----0----------0-----------|
--------4--------------4----|----------4-------------4---|
--5-----------------5-------|--5-----5---5-------5-------|
----------------------------|----------------------------|

Verse
-----------8----------------|-----------3----------------|
-----------------0----------|-----------------0----------|
--------5--------------0----|--------0--------------0----|
--------------------7-------|--------------------2-------|
--0-------------------------|----------------------------|
----------------------------|--0-------------------------|

----------------------------|----------------------------|
-----------------0----------|----------------------------|
-----------0h-2-----2p-0----|-----------0----------------|
--------0-------------------|-----------------0-----0----|
----------------------------|--------3-----------3-------|
--3-------------------------|--1-------------------------|

----------------------------|----------------------------|
------------0---------------|-----------0----------------|
-----------------0-----(0)--|-----------------0----(0)---|
---------2------------------|--------0-------------------|
--0-------------------------|----------------------------|
----------------------------|--3-------------------------|

----------------------------|----------------------------|
-----------3----------------|----------------------------|
-----------------0----(0)---|------------0---------------|
--------4-------------------|--------4---------4-----(4)-|
--5-------------------------|--5--5----5----5------------|
----------------------------|----------------------------|

-----------8----------------|-----------3----------------|
-----------------0----------|-----------------0----------|
--------5--------------0----|--------0--------------0----|
--------------------7-------|--------------------2-------|
--0-------------------------|----------------------------|
----------------------------|--0-------------------------|

----------------------------|----------------------------|
-----------------0----------|----------------------------|
-----------0h-2-----2p-0----|-----------0----------------|
--------0-------------------|-----------------0-----0----|
----------------------------|--------3-----------3-------|
--3-------------------------|--1-------------------------|

----------------------------|----------------------------|
------------0---------------|-----------0----------------|
-----------------0-----(0)--|-----------------0----(0)---|
---------2------------------|--------0-------------------|
--0-------------------------|----------------------------|
----------------------------|--3-------------------------|

----------------------------|----------------------------|
-----------3----------------|-------------3-------(3)----|
-----------------0----------|--0-------------------------|
--------4--------------4----|----------------------------|
--5-----------------5-------|-------5--------------------|
----------------------------|----------------------------|

Piano interlude
----------------------------|----------------------------|
----------------------------|---------0------------------|
-------------2--0-------(0)-|-------------0------(0)-----|
-----0----------------------|-----0----------------------|
----------------------------|----------------------------|
--3-------------------------|--3-------------------------|

----------------------------|----------------------------|
---------0------------------|----------------------------|
-------------0------0---0---|-----0-----0------0---------|
-----0------------0---0-----|--0------0----0-------------|
----------------------------|----------------------------|
--3-------------------------|----------------------------|

Instrumental
-----------8----------------|-----------3----------------|
-----------------0----------|-----------------0----------|
--------5--------------0----|--------0--------------0----|
--------------------7-------|--------------------2-------|
--0-------------------------|----------------------------|
----------------------------|--0-------------------------|

----------------------------|----------------------------|
-----------------0----------|----------------------------|
-----------0h-2-------p0----|-----0------------0---(0)---|
--------0-------------------|--0------------0------------|
----------------------------|----------------------------|
--3-------------------------|-----------3----------------|

-----------8----------------|----------------------------|
-----------------0----------|--------------0-------------|
--------5--------------0----|----------0-------0---(0)---|
--------------------7-------|--------2-------------------|
--0-------------------------|----------------------------|
----------------------------|--0-------------------------|

----------------------------|----------------------------|
-----------3----------------|----------------------------|
-----------------0----------|-----0----------0-----------|
--------4--------------4----|----------4-----------4--(4)|
--5-----------------5-------|--5-----5---5-------5-------|
----------------------------|----------------------------|

Verse
-----------8----------------|-----------3----------------|
-----------------0----------|-----------------0----------|
--------5--------------0----|--------0--------------0----|
--------------------7-------|--------------------2-------|
--0-------------------------|----------------------------|
----------------------------|--0-------------------------|

----------------------------|----------------------------|
-----------------0----------|----------------------------|
-----------0h-2-----2p-0----|-----------0----------------|
--------0-------------------|-----------------0-----0----|
----------------------------|--------3-----------3-------|
--3-------------------------|--1-------------------------|

----------------------------|----------------------------|
------------0---------------|-----------0----------------|
-----------------0-----(0)--|-----------------0----(0)---|
---------2------------------|--------0-------------------|
--0-------------------------|----------------------------|
----------------------------|--3-------------------------|

----------------------------|----------------------------|
-----------3----------------|-----------3----------3--(3)|
-----------------0----(0)---|----------------------------|
--------4-------------------|-----4----------4-----------|
--5-------------------------|--5-----5----5-----5--------|
----------------------------|----------------------------|

-----------8----------------|-----------3----------------|
-----------------0----------|-----------------0----------|
--------5--------------0----|--------0--------------0----|
--------------------7-------|--------------------2-------|
--0-------------------------|----------------------------|
----------------------------|--0-------------------------|

----------------------------|----------------------------|
-----------------0----------|----------------------------|
-----------0h-2-----2p-0----|-----------0----------------|
--------0-------------------|-----------------0-----0----|
----------------------------|--------3-----------3-------|
--3-------------------------|--1-------------------------|

----------------------------|----------------------------|
------------0---------------|-----------0----------------|
-----------------0-----(0)--|-----------------0----(0)---|
---------2------------------|--------0-------------------|
--0-------------------------|----------------------------|
----------------------------|--3-------------------------|

--------0--------2----------|----------------------------||
-----3-----3--------3-------|---------3----(3)-----------||
----------------------------|------2---------------------||
--0-----------0-------------|---0------------------------||
----------------------------|----------------------------||
----------------------------|----------------------------||

Piano interlude
Ending

A kind of arpeggio over these chords (try to figure out by yourself).
F Am G
F Am G Em
F Am G

You hide your 
Filthy hands from all of us 
Still unseen and tied
What water
These killing hands could ever clean 
Still you run 

I want to be changed from 
The shadow and the tomb 
Like water rushing over us 
The tide pulls from the moon 

Your mother 
The passing of a silver ring 
Oversized and cold
This specter
Will walk the halls of every seed     From you 

I want to be changed from 
The shadow and the tomb 
Like water rushing over us 
The tide pulls from the moon 
The tide pulls from the moon 
The tide pulls from the moon

            
            
Suggest correction
Creating personal tab
Creating personal tab
You can edit any tab online and save it as your Personal.

You can edit, replace or remove any tab part or add personal notes – all changes will be seen only by you.

Personal tabs can be accessed anytime from any device, even offline.
Learn more »
Give kudos to tab author, rate the tab!
1 2 3 4 5
comments
print report bad tab
guest
Wanna post a correction for this tab? Suggest correction