Oops, an error
Loading. Please wait.

Ama Kirihuaychu - No Me Hagas Sufrir Mamita tab

113 views 1 this week
no commentswrite comment
1 2 3 4 5
3 more votes to show rating
add to favorites
×
Save as Personal and add changes to this tab that will be seen only by you. Learn more ›
×
You can save this tab as Personal to edit and correct it or add notes. All changes will be seen only by you. Learn more »
launch autoscroll
font size
0
reset
how to read this tab
guitar tuner
edit
Autoscroll
slow
fast
+/-
esc
set tempo
stop
bueno este es el punteado que hace el charango ..en el intro de
Ama Kirihuaychu - No me hagas sufrir mamita

voy a poner dos TAB una muy simple ..y el otro con todos los arreglos
espero que le cachen..sugerencias..criticas ..correcciones
a estuardo247@


simple...


     LA m                LA m                     DO

E:*|-5--3--0--3-5--8-5---5--3--0--3--5--8-5-------0---------0-3-0------
A:*|-------------------------------------------------------------------
E:*|-0-------------------0---------------------------------------------
C:*|------------------------------------------------2-0--2-------------
G:*|-------------------------------------------------------------------


     DO            LAm                           LAm

e:*|-0-------0-----------------------------------8--7--5--7--8--12--8-
A:*|---------------0------0--------0------0---------------------------
E:*|------------------0------0---------------------------------------
C:*|---2-0-2---2-0----------------------0-----------------------------
G:*|--------------------0-------0-------------------------------------


      LAm                       DO

e:*|--8--7--5--7--8--12--8------3-2--0--2--3--8--3----3-2-0-2-3-0--5--
A:*|------------------------------------------------------------------
E:*|------------------------------------------------------------------
C:*|------------------------------------------------------------------
G:*|------------------------------------------------------------------


un canche mas dificil..lo que se hace aqui es agregar a Do y  sol..
como un tipo de bajos mientras tocas la melodia..tambien un par de efectos
que espero entiendas


al final podras ver la explicaciones para tocar xhxh....xsx


     LA m                                      LA m

E:*|-5----3--0h3h0----3--5-5S8--5-----5----3---0h3h0----3--5--5s8--5---
A:*|-------------------------------------------------------------------
E:*|-0--------------------------------0--------------------------------
C:*|----0----------0---------------------0-----------0-----------------
G:*|-------------------------------------------------------------------


     DO                           DO                        LAm

e:*|-0----------------0--3--0-----0-------------------0------------------
A:*|--------------------------------------------------------0------0-----
E:*|-----------------------------------------------------------0-----0---
C:*|-----2-0h2h0----2------------------2--0h2h2----2----2h0--------------
G:*|---0----------0------------------0-----------0---------------0-----0-


      LAm      LAm                       LAm

e:*|-----------8----7--5---7-8--8s12-8---8---- 7--5----7--8--8s12--8-----
A:*|-0---0---------------------------------------------------------------
E:*|---------------------------------------------------------------------
C:*|---0---------0-------0----------------- 0------ 0--------------------
G:*|---------------------------------------------------------------------


     DO                              DO

e:*|-3---2--0h2h0-----2-3--3s8--3----3---2--0h2h0-----3--2--0--5--------
A:*|--------------------------------------------------------------------
E:*|--------------------------------------------------------------------
C:*|---0-----------0-------------------0------------0-------------------
G:*|--------------------------------------------------------------------


1)E:*|---0h3h0------

bueno lo que vamos a hcer es obtener tres sonidos..
SOLO TOCANDO UNA VEZ LA CUERDA

tocamos 0=mi al aire...e inmediatamente colocamos un
dedo en el traste 3=sol(SIN TOCAR OTRAVEZ LA CUERDA CON LA MANO DERECHA)
y  quitamos el dedo del traste 3=sol de forma inmediata para obtener el
ultimo sonido 0...asi tenemos 0h3h0

DE ESTA MANERA 3=SOL y el ultimo 0=mi ..sonaran solo con la vibracion da
la primera nota que tocamos osea..0=mi..
TODO ESTO LO TOCAREMOS DE FORMA MUY RAPIDA..


2)E:*|--5s8-------

aki vamos a obtener 2 dos sonidos tocando
un vez la cuerda
esta tecnica la podriamos llamar slide
que significa deslizar

tocamos 5=la...Y DESLIZAMOS EL sonido
hasta 8=do..(PERO NO DEBEMOS TOCAR LA CUERDA CON LA MANO DERECHA en 8=do)

para ser mas claros

tocamos 5=la Y DESLIZAREMOS nuestro dedo hacia 8
lo que quiere decir que pasaremos por los traste 6,7,
HASTA LLEGAR AL OCHO


3)C:*|---2h0--------------

aki tambien vamos a obtener 2 sonidos
tokando una vez la cuerda


tocamos 2=re..E INMEDIATAMENTE RETIRAMOS
nuestro dedo ..HACIENDO QUE SUENE 0=C
con la vibracion de la primera nota
que tocamos osea 2=re

            
            
Suggest correction
Creating personal tab
Creating personal tab
You can edit any tab online and save it as your Personal.

You can edit, replace or remove any tab part or add personal notes – all changes will be seen only by you.

Personal tabs can be accessed anytime from any device, even offline.
Learn more »
Give kudos to tab author, rate the tab!
1 2 3 4 5
comments
print report bad tab
guest
Wanna post a correction for this tab? Suggest correction