Oops, an error
Loading. Please wait.

Camino Al Barrio bass

257 views 3 this week
no commentswrite comment
1 2 3 4 5
2 more votes to show rating
add to favorites
×
Save as Personal and add changes to this tab that will be seen only by you. Learn more ›
×
You can save this tab as Personal to edit and correct it or add notes. All changes will be seen only by you. Learn more »
launch autoscroll
font size
0
reset
guitar tuner
edit
Autoscroll
slow
fast
+/-
esc
set tempo
stop
De uno de los discos más raros en la historia de la Fania, cuya
inspiración se encuentra en la obra de nuestro poeta
cumanés (en el Edo. Sucre, al noreste de Venezuela)
Andrés Eloy Blanco.

INTRO (Varias veces, incluida la entrada de la sección de cuerdas):

Riff 1:
G --------------------|
D -7-7-7---5-5-5------|
A -------7-------5----|
E --------------------|

Riff 2:
G -------------9-7--------|
D -7-7-7---7-5-----9----7-|
A -------7-----------10---|
E ------------------------|

ENTRADA AL MAMBO

Riff 3:
G -----6-7-|
D -7-9-----|
A ---------|
E ---------|

MAMBO:

Riff 4:
G -7---9---------------|
D ---7------9-7--------|
A -------7-------------|
E ---------------------|

Riff 5:
G ---7----------------|
D -7-----7-9---9-9-7--|
A -----7-----7--------|
E --------------------|

Riff 6:
G ---7-7---9-9--------|
D -7-----7-------9-7--| (2 veces)
A -------------7------|
E --------------------|

Se repite lo antes tabulado por una vez más y ya está lista.
Es fácil, sólo es cuestión de seguir el ritmo. Les recomiendo que
oigan la canción todas las veces que sean necesarias para poder seguir
el ritmo y los cambios. HASTA LA PROXIMA.

            
            
Suggest correction
Creating personal tab
Creating personal tab
You can edit any tab online and save it as your Personal.

You can edit, replace or remove any tab part or add personal notes – all changes will be seen only by you.

Personal tabs can be accessed anytime from any device, even offline.
Learn more »
Give kudos to tab author, rate the tab!
1 2 3 4 5
comments
print report bad tab
guest
Wanna post a correction for this tab? Suggest correction