Oops, an error
Loading. Please wait.

Corona tab

13 views 1 this week
no commentswrite comment
1 2 3 4 5
3 more votes to show rating
add to favorites
×
Save as Personal and add changes to this tab that will be seen only by you. Learn more ›
×
You can save this tab as Personal to edit and correct it or add notes. All changes will be seen only by you. Learn more »
launch autoscroll
font size
0
reset
how to read this tab
guitar tuner
edit
Autoscroll
slow
fast
+/-
esc
set tempo
stop
Author
Difficulty
About this tab version
It is the only tab online, I was in collaberation with the artist to make sure that everything was perfect before submitting. Was this info helpful? Yes No
In case you are not familiar with this song, it is written by a loop artist, meaning most of these individual
riffs are looped throughout the song. 


[First Riff] (looped)

e|---------------------------------------------------------|
B|--------3----------3-----------------1------------1------|
G|-----4----4-----3----3---3-------2----2-------3----3-----|
D|-5-5---5------5---5----5----3-3----3------2-2---2----2--3|
A|---------------------------------------------------------|
E|---------------------------------------------------------|

(Not Looped)
Chord @0:11
e|--3--|
B|--3--|
G|--4--|
D|--5--|
A|--5--|
E|--3--|

(Not Looped)
Intro to bass line

e|----------------|
B|----------------|
G|----------------|
D|----------------|
A|----------------|
E|-3-3--3-3--3-3-3|


[Bass Line] 

(looped)
e|------------------------------------------------------|
B|------------------------------------------------------|
G|------------------------------------------------------|
D|------------------------------------------------------|
A|------------------------------------------------------|
E|-15/3-3-3-3-3---3-3---3-3-1-1-1-1-1--1--8-8-8-8--8-0-1|


[Slide Riff]

@1:13 (looped)
e|-----------------------|
B|-----------------------|
G|-12/10--7/5--5/7--10/12|
D|-----------------------|
A|-----------------------|
E|-----------------------|


[Layered Riff]

@1:24 (looped)
e|---10-------------------|
B|8-----11--10--10h11p10--|
G|----------------------10|
D|------------------------|
A|------------------------|
E|------------------------|

[Solo Intro] 

@3:03 (Not Looped)
e|-/15-15-15-15-15-15-15-15-15-15|
B|-------------------------------|
G|-------------------------------|
D|-------------------------------|
A|-------------------------------|
E|-------------------------------|

[Solo] 

@3:06 (looped)
e|-15--15\13--13/15--15\10--10/17--17-17-17\13--13/15|
B|---------------------------------------------------|
G|---------------------------------------------------|
D|---------------------------------------------------|
A|---------------------------------------------------|
E|---------------------------------------------------|

Riff 

@3:28 (looped)
e|----------10----------------|
B|--------------11-10-10h11p10|
G|10/12--12-------------------|
D|----------------------------|
A|----------------------------|
E|----------------------------|


Lyrics:


[Verse 1]

I was nervous
You were beautiful to say the least 
awkward courage
I wanted to but I couldn't move my feet
Thought I'd miss you
Girl you know I thought you'd pass me by
But you saw me
Made damn sure that I caught your eye


[Chorus]

Let's fast forward
Thought for sure your friends would throw me out
But they didn't
Leaving me with no more reason to doubt
But I didn't come here for myself no
I came here for you


[Verse 2]

I was nervous
You were beautiful to say the least
I'm still nervous
You're still beautiful beyond beliefe
And you know I finally, I finally learned to move my feet
Now I'm here with you



************************************

| h   Hammer-on
| p   Pull-off
| /   Slide up
| \   Slide down

************************************

            
            
Suggest correction
Creating personal tab
Creating personal tab
You can edit any tab online and save it as your Personal.

You can edit, replace or remove any tab part or add personal notes – all changes will be seen only by you.

Personal tabs can be accessed anytime from any device, even offline.
Learn more »
Give kudos to tab author, rate the tab!
1 2 3 4 5
comments
print report bad tab
guest
You may want to rate the tab now too:
select rating
Wanna post a correction for this tab? Suggest correction