Oops, an error
Loading. Please wait.

Tilting tab

46 views 1 this week
no commentswrite comment
1 2 3 4 5
3 more votes to show rating
add to favorites
×
Save as Personal and add changes to this tab that will be seen only by you. Learn more ›
×
You can save this tab as Personal to edit and correct it or add notes. All changes will be seen only by you. Learn more »
launch autoscroll
font size
0
reset
how to read this tab
guitar tuner
edit
Autoscroll
slow
fast
+/-
esc
set tempo
stop
Author
A great song by Cory Myraas (Windmills)
All of the phrases are looped and thus the same throughout the song.
Big thanks to Cory Myraas himself for help editing the tab.


[Guitar 1]

(Bass line)

e|--------------------------------------------------------------------|
B|--------------------------------------------------------------------|
G|--------------------------------------------------------------------|
D|--------------------------------------------------------------------|
A|--------------------------------------------------------------------|
E|7--7--7--7--7--7\2--2--2--2--2--2/5--5--5--5--5--5\3--3--3--3--3--3/|

e|--------------------------------------------------------------------|
B|--------------------------------------------------------------------|
G|--------------------------------------------------------------------|
D|--------------------------------------------------------------------|
A|--------------------------------------------------------------------|
E|7--7--7--7--7/10\2--2--2--2--2--2/5--5--5--5--5--5\3--3--3--3--3--3/|


[Guitar 2]

e|------------17----------|------------17----------|------------17----------|------------17----------|
B|--15--15--15--15--15--15|--15--15--15--15--15--15|--15--15--15--15--15--15|--15--15--15--15--15--15|
G|16--16--16------16--16--|16--16--16------16--16--|16--16--16------16--16--|16--16--16------16--16--|
D|------------------------|------------------------|------------------------|------------------------|
A|------------------------|------------------------|------------------------|------------------------|
E|------------------------|------------------------|------------------------|------------------------|

e|------12----12----12----10----10----10----10----|------12----12----10h12p10----10----10----10----10------|
B|--10----10----10----10----10----10----10----10--|--10----10----10----------10----10----10----10----10----|
G|11--11----11----11----11----11----11----11----11|11--11----11----11----------11----11----11----11----11--|
D|------------------------------------------------|--------------------------------------------------------|
A|------------------------------------------------|--------------------------------------------------------|
E|------------------------------------------------|--------------------------------------------------------|

[Guitar 3]

e|----------------------------------------|----------------------------------------|
B|----------------------------------------|----------------------------------------|
G|---9-9-9-9/11-11-11-11-11-11\7-7-7-7-7-7|---9-9-9-9/11-11-11-11-11-11\6-6-6-6-6-7|
D|----------------------------------------|----------------------------------------|
A|----------------------------------------|----------------------------------------|
E|----------------------------------------|----------------------------------------|

e|----------------------------------------|----------------------|
B|----------------------------------------|----------------------|
G|---9-9-9-9/11-11-11-11-11-11\7-7-7-7-7-7|----6-6-6-6-6-6/7\4---|
D|----------------------------------------|----------------------|
A|----------------------------------------|----------------------|
E|----------------------------------------|----------------------|


[Guitar 4]

(Arpeggiated)

e|-------------------------------------------------------------------------|
B|---------10-----------------5-----------------7------------------5-------|
G|---7---------7--------2---------2--------6--------6--------4--------4----|
D|9-----9---------9--4-----4---------4--7-----7--------7--5-----5--------5-|
A|-------------------------------------------------------------------------|
E|-------------------------------------------------------------------------|

[Chords]
    Em    Fm    A     C
e|--7-----2-----5-----3---|
B|--7-----2-----5-----3---|
G|--7-----2-----6-----4---|
D|------------------------|
A|------------------------|
E|------------------------|


[Lyrics]

Let fall apart the ways that you've let me down before
you always hurt the ones that will come asking for more
but maybe I was blind
I couldn't realize that with time
you always hurt the ones that will come asking for more
Let fall apart the ways
and let them slip away
you always hurt the ones that will come asking for more


************************************
| h   Hammer-on
| p   Pull-off
| /   Slide up
| \   Slide down
************************************

            
            
Suggest correction
Creating personal tab
Creating personal tab
You can edit any tab online and save it as your Personal.

You can edit, replace or remove any tab part or add personal notes – all changes will be seen only by you.

Personal tabs can be accessed anytime from any device, even offline.
Learn more »
Give kudos to tab author, rate the tab!
1 2 3 4 5
comments
print report bad tab
guest
You may want to rate the tab now too:
select rating
Wanna post a correction for this tab? Suggest correction