Oops, an error
Loading. Please wait.

One Body Too Many tab

version 1
version 1

Whole song

Interactive

16,824 views 1 this week
5 commentsread comments
1 2 3 4 5
x 10
add to favorites
×
Save as Personal and add changes to this tab that will be seen only by you. Learn more ›
×
You can save this tab as Personal to edit and correct it or add notes. All changes will be seen only by you. Learn more »
launch autoscroll
font size
0
reset
how to read this tab
guitar tuner
edit
Autoscroll
slow
fast
+/-
esc
set tempo
stop
Author
Difficulty
Tabbers playing skills
intermediate ++
Wind of Plauge - One Body Too Many

Email - stolen1337@myway.com

 Guitar 1
       E  E  Q    Q    S S E                S S S S E  S S Q    S S S S
e||--------------------------|---------||------------------------------|
B||--------------------------|---------||------------------------------|
G||*-------------------------|-------*-||------------------------------|
D||*-------------------------|-------*-||------------------------------|
A||---0---------------0-0-0--|---------||--0-0-0-0-0-----------0-0-0-0-|
E||---0---------------0-0-0--|---------||--0-0-0-0-0-----------0-0-0-0-|

    E  E  E  E  S S S S E  E     S S S S E  S S Q    S S S S
e|----------------------------|------------------------------|
B|----------------------------|------------------------------|
G|----------------------------|------------------------------|
D|----------------------------|------------------------------|
A|--0-----0-----0-0-0-0-0-----|--0-0-0-0-0-----------0-0-0-0-|
E|--0-----0-----0-0-0-0-0-----|--0-0-0-0-0-----------0-0-0-0-|

                                 TP       TP   TP      TP       TP
    E  E  E  E  S S S S E  E     H        Q    Q       H        H
e|----------------------------|---------------------|--------------------|
B|----------------------------|---------------------|--------------------|
G|----------------------------|---------------------|--------------------|
D|----------------------------|---------------------|--------------------|
A|--0-----0-----0-0-0-0-0-----|--8--------5----8----|--7--------4--------|
E|--0-----0-----0-0-0-0-0-----|---------------------|--------------------|

    TP       TP   TP      TP   TP    TP    TP      TP       TP   TP
    H        Q    Q       Q    Q     Q     Q       H        Q    Q
e|---------------------|------------------------|---------------------|
B|---------------------|------------------------|---------------------|
G|---------------------|------------------------|---------------------|
D|---------------------|------------------------|---------------------|
A|--8--------5----8----|--7----8----10----12----|--8--------5----8----|
E|---------------------|------------------------|---------------------|

    TP       TP          TP       TP   TP      TP   TP    TP    TP
    H        H           H        Q    Q       Q    Q     Q     Q
e|--------------------|---------------------|------------------------|
B|--------------------|---------------------|------------------------|
G|--------------------|---------------------|------------------------|
D|--------------------|---------------------|------------------------|
A|--7--------4--------|--8--------5----8----|--7----8----10----12----|
E|--------------------|---------------------|------------------------|

    E  E  Q    Q    S S E             S S S S E  S S Q    S S S S
e|-------------------------|-------|------------------------------|
B|-------------------------|-------|------------------------------|
G|-------------------------|-------|------------------------------|
D|-------------------------|-------|------------------------------|
A|--0---------------0-0-0--|-------|--0-0-0-0-0-----------0-0-0-0-|
E|--0---------------0-0-0--|-------|--0-0-0-0-0-----------0-0-0-0-|

    E  E  E  E  S S S S E  E        S  S S S  S  S S S  S  S  S  S  S  S S S
e|----------------------------||---------------------------------------------|
B|----------------------------||---------------------------------------------|
G|----------------------------||*----------------------------------11-10-----|
D|----------------------------||*------------11-10-----------11-10-----------|
A|--0-----0-----0-0-0-0-0-----||---11-10---------------11-10-----------------|
E|--0-----0-----0-0-0-0-0-----||---------0-0-------0-0-------------------0-0-|

     S  S S S  S  S S S E  E  E  E
e|------------------------------------||
B|------------------------------------||
G|----------------------------------*-||
D|------------11-10-----------------*-||
A|--11-10---------------4--3--1--3----||
E|--------0-0-------0-0-4--3--1--3----||

     S  S S S  S  S S S  S  S  S  S  S  S S S     S  S S S  S  S S S E  E  E  E
e|--------------------------------------------|----------------------------------|
B|--------------------------------------------|----------------------------------|
G|----------------------------------11-10-----|----------------------------------|
D|------------11-10-----------11-10-----------|------------11-10-----------------|
A|--11-10---------------11-10-----------------|--11-10---------------4--3--1--3--|
E|--------0-0-------0-0-------------------0-0-|--------0-0-------0-0-4--3--1--3--|

     S  S S S  S  S S S  S  S  S  S  S  S S S     S  S S S  S  S S S E  E  E  E
e|--------------------------------------------|----------------------------------|
B|--------------------------------------------|----------------------------------|
G|----------------------------------11-10-----|----------------------------------|
D|------------11-10-----------11-10-----------|------------11-10-----------------|
A|--11-10---------------11-10-----------------|--11-10---------------4--3--1--3--|
E|--------0-0-------0-0-------------------0-0-|--------0-0-------0-0-4--3--1--3--|

    E  E  E  E     E  E  E  E  E  E  E  E     E  E  E  E  E  E  E  E
e|--------------|--------------------------|--------------------------|
B|--------------|--------------------------|--------------------------|
G|--------------|--------------------------|--------------------------|
D|--------------|--------------------------|--------------------------|
A|--3--2--1--0--|--4--3--1--3--3--2--1--0--|--4--3--1--3--3--2--1--0--|
E|--3--2--1--0--|--4--3--1--3--3--2--1--0--|--4--3--1--3--3--2--1--0--|

    E  E  E  E  E  E  E  E     E  E  E  E  E  E  E  E
e|--------------------------|--------------------------|
B|--------------------------|--------------------------|
G|--------------------------|--------------------------|
D|--------------------------|--------------------------|
A|--4--3--1--3--3--2--1--0--|--4--3--1--3--3--2--1--0--|
E|--4--3--1--3--3--2--1--0--|--4--3--1--3--3--2--1--0--|

     H        Q    S S S S    Q    Q    S S S S Q
e|-------------------------|---------------------------||
B|-------------------------|---------------------------||
G|*------------------------|-------------------------*-||
D|*------------------------|-------------------------*-||
A|---0--------L----0-0-0-0-|--0----0----0-0-0-0-0------||
E|---0--------L----0-0-0-0-|--0----0----0-0-0-0-0------||

    H        Q    S S S S    Q    Q    S S S S Q       H        Q    S S S S
e|------------------------|-------------------------|------------------------|
B|------------------------|-------------------------|------------------------|
G|------------------------|-------------------------|------------------------|
D|------------------------|-------------------------|------------------------|
A|-----------0----0-0-0-0-|--0----0----0-0-0-0-0----|--0--------L----0-0-0-0-|
E|-----------0----0-0-0-0-|--0----0----0-0-0-0-0----|--0--------L----0-0-0-0-|

    Q    Q    S S S S Q       H        Q    S S S S    Q    Q    S S S S Q
e|-------------------------|------------------------|-------------------------|
B|-------------------------|------------------------|-------------------------|
G|-------------------------|------------------------|-------------------------|
D|-------------------------|------------------------|-------------------------|
A|--0----0----0-0-0-0-0----|--0--------L----0-0-0-0-|--0----0----0-0-0-0-0----|
E|--0----0----0-0-0-0-0----|--0--------L----0-0-0-0-|--0----0----0-0-0-0-0----|

    H        Q    S S S S    Q    Q    S S S S Q       H        Q    S S S S
e|------------------------|-------------------------|------------------------|
B|------------------------|-------------------------|------------------------|
G|------------------------|-------------------------|------------------------|
D|------------------------|-------------------------|------------------------|
A|--0--------L----0-0-0-0-|--0----0----0-0-0-0-0----|--0--------L----0-0-0-0-|
E|--0--------L----0-0-0-0-|--0----0----0-0-0-0-0----|--0--------L----0-0-0-0-|

    Q    Q    S S S S Q       H        Q    S S S S    Q    Q    S S S S Q
e|-------------------------|------------------------|-------------------------|
B|-------------------------|------------------------|-------------------------|
G|-------------------------|------------------------|-------------------------|
D|-------------------------|------------------------|-------------------------|
A|--0----0----0-0-0-0-0----|--0--------L----0-0-0-0-|--0----0----0-0-0-0-0----|
E|--0----0----0-0-0-0-0----|--0--------L----0-0-0-0-|--0----0----0-0-0-0-0----|

     S S S S S S S S S S S S S S S S     S S S  S S S  S S  S S S  S S S  S S
e|-----------------------------------|----------------------------------------|
B|-----------------------------------|----------------------------------------|
G|*----------------------------------|----------------------------------------|
D|*----------------------------------|----------------------------------------|
A|---8-----8-----8---5-----5-----5---|--13-----13-----13---12-----12-----12---|
E|-----0-0---0-0---0---0-0---0-0---0-|-----0-0----0-0----0----0-0----0-0----0-|

     S S S  S S S  S S  S S S  S S S  S S
e|----------------------------------------|
B|----------------------------------------|
G|----------------------------------------|
D|----------------------------------------|
A|--10-----10-----10---12-----12-----12---|
E|-----0-0----0-0----0----0-0----0-0----0-|

     TP  TP  TP  TP  TP  TP
     E   E   E   E   E   E   S  S  S  S       S S S S S S S S S S S S S S S S
e|--------------------------17------------||----------------------------------|
B|-----------------------------18---------||----------------------------------|
G|--------------------------------19----*-||----------------------------------|
D|-----------------------------------19-*-||----------------------------------|
A|--15--13--17--15--19--17----------------||--8-----8-----8---5-----5-----5---|
E|----------------------------------------||----0-0---0-0---0---0-0---0-0---0-|

     S S S  S S S  S S  S S S  S S S  S S
e|----------------------------------------|
B|----------------------------------------|
G|----------------------------------------|
D|----------------------------------------|
A|--13-----13-----13---12-----12-----12---|
E|-----0-0----0-0----0----0-0----0-0----0-|

                                              TP  TP  TP  TP  TP  TP
     S S S  S S S  S S  S S S  S S S  S S     E   E   E   E   E   E   S  S  S  S
e|----------------------------------------|--------------------------17----------|
B|----------------------------------------|-----------------------------18-------|
G|----------------------------------------|--------------------------------19----|
D|----------------------------------------|-----------------------------------19-|
A|--10-----10-----10---12-----12-----12---|--15--13--17--15--19--17--------------|
E|-----0-0----0-0----0----0-0----0-0----0-|--------------------------------------|

    S S S S S S S S S S S S S S S S     S S S  S S S  S S  S S S  S S S  S S
e|----------------------------------|----------------------------------------|
B|----------------------------------|----------------------------------------|
G|----------------------------------|----------------------------------------|
D|----------------------------------|----------------------------------------|
A|--8-----8-----8---5-----5-----5---|--13-----13-----13---12-----12-----12---|
E|----0-0---0-0---0---0-0---0-0---0-|-----0-0----0-0----0----0-0----0-0----0-|

                                              TP  TP  TP  TP  TP  TP
     S S S  S S S  S S  S S S  S S S  S S     E   E   E   E   E   E   S  S  S  S
e|----------------------------------------|--------------------------17----------|
B|----------------------------------------|-----------------------------18-------|
G|----------------------------------------|--------------------------------19----|
D|----------------------------------------|-----------------------------------19-|
A|--10-----10-----10---12-----12-----12---|--15--13--17--15--19--17--------------|
E|-----0-0----0-0----0----0-0----0-0----0-|--------------------------------------|

    Q    E  E  Q    E  E     E  H        Q    E     Q    E  E  Q    E  E
e|------------------------|----------------------|------------------------|
B|------------------------|----------------------|------------------------|
G|------------------------|----------------------|------------------------|
D|------------------------|----------------------|------------------------|
A|--0----------5-------3--|--L-------------------|--0----------5-------3--|
E|--0----0--0--5----0--3--|--L-------------------|--0----0--0--5----0--3--|

    E  H        Q    E     Q    E  E  Q    E  E     E  S S E  E  E  E  E  E
e|----------------------|------------------------|---------------------------|
B|----------------------|------------------------|---------------------------|
G|----------------------|------------------------|---------------------2--5--|
D|----------------------|------------------------|------------0--3--5--------|
A|--L-------------------|--0----------5-------3--|--L--0-5-8-----------------|
E|--L-------------------|--0----0--0--5----0--3--|--L------------------------|

    Q    E  E  Q    E  E     E  S S E  E  E  E  E  E       Q    E  E  Q    E  E
e|------------------------|---------------------------||-------------------------|
B|------------------------|---------------------------||-------------------------|
G|------------------------|---------------------2--5--||*------------------------|
D|------------------------|------------0--3--5--------||*------------------------|
A|--0----------5-------3--|--L--0-5-8-----------------||---0----------5-------3--|
E|--0----0--0--5----0--3--|--L------------------------||---0----0--0--5----0--3--|

    E  S S E  E  E  E  E  E        E  H        Q    E
e|-----------------------------||----------------------|
B|-----------------------------||----------------------|
G|---------------------2--5--*-||----------------------|
D|------------0--3--5--------*-||----------------------|
A|--L--0-5-8-------------------||--0-------------------|
E|--L--------------------------||--1-------------------|

    Q    S E  E  E  T T S E  T T    S Q    E  E  Q    E  S
e|-------------------------------|-------------------------|
B|-------------------------------|-------------------------|
G|-------------------------------|-------------------------|
D|-------------------------------|-------------------------|
A|--0----0-L--0--0--0-0-0-0--0-0-|--0-0----L--0--0----L--0-|
E|--1----1-L--1--1--1-1-1-1--1-1-|--1-1----L--1--1----L--1-|

    S E  S S E  E  S T T S E  E     Q    E  E  Q    E  S S
e|-------------------------------|-------------------------|
B|-------------------------------|-------------------------|
G|-------------------------------|-------------------------|
D|-------------------------------|-------------------------|
A|----L--0---L--0--0-0-0-0-0--0--|--0----L--0--0----L--0---|
E|----L--1---L--1--1-1-1-1-1--1--|--0----L--0--0----L--0---|

    E  S S E  E  E  T T S E  E     Q    E  E  Q    E  S S
e|------------------------------|-------------------------|
B|------------------------------|-------------------------|
G|------------------------------|-------------------------|
D|------------------------------|-------------------------|
A|--L--0---L--0--0--0-0-0-0--0--|--0----L--0--0----L--0---|
E|--L--0---L--0--0--0-0-0-0--0--|--0----L--0--0----L--0---|

    E  S S E  E  E  T T S E  E       Q    E  E  Q    E  S S
e|------------------------------||--------------------------|
B|------------------------------||--------------------------|
G|------------------------------||*-------------------------|
D|------------------------------||*-------------------------|
A|--L--0---L--0--0--0-0-0-0--0--||---0----L--0--0----L--0---|
E|--L--0---L--0--0--0-0-0-0--0--||---1----L--1--1----L--1---|

    E  S S E  E  E  T T S E  E        W                   W
e|--------------------------------||-------------------|-------------------|
B|--------------------------------||-------------------|-------------------|
G|------------------------------*-||-------------------|-------------------|
D|------------------------------*-||-------------------|-------------------|
A|--L--0---L--0--0--0-0-0-0--0----||--0----------------|--L----------------|
E|--L--1---L--1--1--1-1-1-1--1----||--0----------------|--L----------------|

    S S S S S S S S S S S S S S S S     S S S  S S S  S S  S S S  S S S  S S
e|----------------------------------|----------------------------------------|
B|----------------------------------|----------------------------------------|
G|----------------------------------|----------------------------------------|
D|----------------------------------|----------------------------------------|
A|--8-----8-----8---5-----5-----5---|--13-----13-----13---12-----12-----12---|
E|----0-0---0-0---0---0-0---0-0---0-|-----0-0----0-0----0----0-0----0-0----0-|

     S S S  S S S  S S  S S S  S S S  S S
e|----------------------------------------|
B|----------------------------------------|
G|----------------------------------------|
D|----------------------------------------|
A|--10-----10-----10---12-----12-----12---|
E|-----0-0----0-0----0----0-0----0-0----0-|

     S S S  S S S  S S  S S S  S S S  S S    S S S S S S S S S S S S S S S S
e|----------------------------------------|----------------------------------|
B|----------------------------------------|----------------------------------|
G|----------------------------------------|----------------------------------|
D|----------------------------------------|----------------------------------|
A|--12-----12-----12---12-----12-----12---|--8-----8-----8---5-----5-----5---|
E|-----0-0----0-0----0----0-0----0-0----0-|----0-0---0-0---0---0-0---0-0---0-|

     S S S  S S S  S S  S S S  S S S  S S
e|----------------------------------------|
B|----------------------------------------|
G|----------------------------------------|
D|----------------------------------------|
A|--13-----13-----13---12-----12-----12---|
E|-----0-0----0-0----0----0-0----0-0----0-|

     S S S  S S S  S S  S S S  S S S  S S
e|----------------------------------------|
B|----------------------------------------|
G|----------------------------------------|
D|----------------------------------------|
A|--10-----10-----10---12-----12-----12---|
E|-----0-0----0-0----0----0-0----0-0----0-|

     S S S  S S S  S S  S S S  S S S  S S     S  S  S  S  S  S  S  S  S  S  S  S
e|----------------------------------------|-----------------17-------------------|
B|----------------------------------------|--------------18----18----------------|
G|----------------------------------------|-----------19----------19-------------|
D|----------------------------------------|--------19----------------19----------|
A|--12-----12-----12---12-----12-----12---|--17-20----------------------20-19-17-|
E|-----0-0----0-0----0----0-0----0-0----0-|--------------------------------------|

     S  S  S  S  S  S  S  S  S  S  S  S     S  S  S  S  S  S  S  S  S  S  S  S
e|-----------------17-------------------|-----------------17-------------------|
B|--------------18----18----------------|--------------18----18----------------|
G|-----------19----------19-------------|-----------19----------19-------------|
D|--------19----------------19----------|--------19----------------19----------|
A|--17-20----------------------20-19-17-|--17-20----------------------20-19-17-|
E|--------------------------------------|--------------------------------------|

     S  S  S  S  S  S  S  S  S  S  S  S     S  S  S  S  S  S  S  S  S  S  S  S
e|-----------------17-20-18-17----------|-----------------17-------------------|
B|--------------18-------------18-------|--------------18----18----------------|
G|-----------19-------------------19----|-----------19----------19-------------|
D|--------19-------------------------19-|--------19----------------19----------|
A|--17-20-------------------------------|--17-20----------------------20-19-17-|
E|--------------------------------------|--------------------------------------|

     S  S  S  S  S  S  S  S  S  S  S  S     S  S  S  S  S  S  S  S  S  S  S  S
e|-----------------17-------------------|-----------------17-------------------|
B|--------------18----18----------------|--------------18----18----------------|
G|-----------19----------19-------------|-----------19----------19-------------|
D|--------19----------------19----------|--------19----------------19----------|
A|--17-20----------------------20-19-17-|--17-20----------------------20-19-17-|
E|--------------------------------------|--------------------------------------|

     S  S  S  S  S  S  S  S  S  S  S  S      H        Q        H        Q
e|-----------------17-20-18-17----------|------------------|-----------------|
B|--------------18-------------18-------|------------------|-----------------|
G|-----------19-------------------19----|------------------|-----------------|
D|--------19-------------------------19-|------------------|-----------------|
A|--17-20-------------------------------|--/17--------L----|--13--------L----|
E|--------------------------------------|------------------|-----------------|

     H        Q        H        Q        H        Q        Q    E   Q    E
e|-----------------|-----------------|-----------------|--------------------|
B|-----------------|-----------------|-----------------|--------------------|
G|-----------------|-----------------|-----------------|--------------------|
D|-----------------|-----------------|-----------------|--19----L--17----L--|
A|--12--------L----|---L--------L----|--17--------L----|--------------------|
E|-----------------|-----------------|-----------------|--------------------|

     H         Q       H        Q        H        Q        Q    E   Q    E
e|------------------|----------------|-----------------|--------------------|
B|------------------|----------------|-----------------|--------------------|
G|------------------|----------------|-----------------|--------------------|
D|--16b--------L----|-----------L----|-----------------|--19----L--17----L--|
A|------------------|----------------|--17--------L----|--------------------|
E|------------------|----------------|-----------------|--------------------|

     H        Q       H        Q       H        Q
e|-----------------|----------------|----------------||
B|-----------------|----------------|----------------||
G|-----------------|----------------|----------------||
D|--16--------L----|-----------L----|-----------L----||
A|-----------------|----------------|----------------||
E|-----------------|----------------|----------------||

Guitar 2
      E  E  Q    Q    S S E                S S S S E  S S Q    S S S S
e|--------------------------|---------||------------------------------|
B|--------------------------|---------||------------------------------|
G|*-------------------------|-------*-||------------------------------|
D|*-------------------------|-------*-||------------------------------|
A|---0---------------0-0-0--|---------||--0-0-0-0-0-----------0-0-0-0-|
E|---0---------------0-0-0--|---------||--0-0-0-0-0-----------0-0-0-0-|

    E  E  E  E  S S S S E  E     S S S S E  S S Q    S S S S
e|----------------------------|------------------------------|
B|----------------------------|------------------------------|
G|----------------------------|------------------------------|
D|----------------------------|------------------------------|
A|--0-----0-----0-0-0-0-0-----|--0-0-0-0-0-----------0-0-0-0-|
E|--0-----0-----0-0-0-0-0-----|--0-0-0-0-0-----------0-0-0-0-|

                                 TP       TP   TP      TP       TP
    E  E  E  E  S S S S E  E     H        Q    Q       H        H
e|----------------------------|---------------------|--------------------|
B|----------------------------|---------------------|--------------------|
G|----------------------------|---------------------|--------------------|
D|----------------------------|---------------------|--------------------|
A|--0-----0-----0-0-0-0-0-----|--5--------1----5----|--4-----------------|
E|--0-----0-----0-0-0-0-0-----|---------------------|-----------7--------|

    TP       TP   TP      TP   TP   TP   TP      TP       TP   TP
    H        Q    Q       Q    Q    Q    Q       H        Q    Q
e|---------------------|----------------------|---------------------|
B|---------------------|----------------------|---------------------|
G|---------------------|----------------------|---------------------|
D|---------------------|----------------------|---------------------|
A|--5--------1----5----|--4----5----7----8----|--5--------1----5----|
E|---------------------|----------------------|---------------------|

    TP       TP          TP       TP   TP      TP   TP   TP   TP
    H        H           H        Q    Q       Q    Q    Q    Q
e|--------------------|---------------------|----------------------|
B|--------------------|---------------------|----------------------|
G|--------------------|---------------------|----------------------|
D|--------------------|---------------------|----------------------|
A|--4-----------------|--5--------1----5----|--4----5----7----8----|
E|-----------7--------|---------------------|----------------------|

    E  E  Q    Q    S S E             S S S S E  S S Q    S S S S
e|-------------------------|-------|------------------------------|
B|-------------------------|-------|------------------------------|
G|-------------------------|-------|------------------------------|
D|-------------------------|-------|------------------------------|
A|--0---------------0-0-0--|-------|--0-0-0-0-0-----------0-0-0-0-|
E|--0---------------0-0-0--|-------|--0-0-0-0-0-----------0-0-0-0-|

    E  E  E  E  S S S S E  E       S S S S S S S S S S S S S S S S
e|----------------------------||-----------------------------------|
B|----------------------------||-----------------------------------|
G|----------------------------||*--------------------------8-7-----|
D|----------------------------||*----------8-7---------8-7---------|
A|--0-----0-----0-0-0-0-0-----||---8-7-------------8-7-------------|
E|--0-----0-----0-0-0-0-0-----||-------0-0-----0-0-------------0-0-|


    S S S S S S S S E  E  E  E        S S S S S S S S S S S S S S S S
e|--------------------------------||----------------------------------|
B|--------------------------------||----------------------------------|
G|------------------------------*-||--------------------------8-7-----|
D|----------8-7-----------------*-||----------8-7---------8-7---------|
A|--8-7-------------4--3--1--3----||--8-7-------------8-7-------------|
E|------0-0-----0-0-4--3--1--3----||------0-0-----0-0-------------0-0-|

    S S S S S S S S E  E  E  E     S S S S S S S S S S S S S S S S
e|------------------------------|----------------------------------|
B|------------------------------|----------------------------------|
G|------------------------------|--------------------------8-7-----|
D|----------8-7-----------------|----------8-7---------8-7---------|
A|--8-7-------------4--3--1--3--|--8-7-------------8-7-------------|
E|------0-0-----0-0-4--3--1--3--|------0-0-----0-0-------------0-0-|

    S S S S S S S S E  E  E  E     E  E  E  E     E  E  E  E  E  E  E  E
e|------------------------------|--------------|--------------------------|
B|------------------------------|--------------|--------------------------|
G|------------------------------|--------------|--------------------------|
D|----------8-7-----------------|--------------|--------------------------|
A|--8-7-------------4--3--1--3--|--3--2--1--0--|--4--3--1--3--3--2--1--0--|
E|------0-0-----0-0-4--3--1--3--|--3--2--1--0--|--4--3--1--3--3--2--1--0--|

    E  E  E  E  E  E  E  E     E  E  E  E  E  E  E  E
e|--------------------------|--------------------------|
B|--------------------------|--------------------------|
G|--------------------------|--------------------------|
D|--------------------------|--------------------------|
A|--4--3--1--3--3--2--1--0--|--4--3--1--3--3--2--1--0--|
E|--4--3--1--3--3--2--1--0--|--4--3--1--3--3--2--1--0--|

    E  E  E  E  E  E  E  E       H        Q    S S S S
e|--------------------------||-------------------------|
B|--------------------------||-------------------------|
G|--------------------------||*------------------------|
D|--------------------------||*------------------------|
A|--4--3--1--3--3--2--1--0--||---0--------L----0-0-0-0-|
E|--4--3--1--3--3--2--1--0--||---0--------L----0-0-0-0-|

    Q    Q    S S S S Q          H        Q    S S S S    Q    Q    S S S S Q
e|---------------------------||------------------------|-------------------------|
B|---------------------------||------------------------|-------------------------|
G|-------------------------*-||------------------------|-------------------------|
D|-------------------------*-||------------------------|-------------------------|
A|--0----0----0-0-0-0-0------||-----------0----0-0-0-0-|--0----0----0-0-0-0-0----|
E|--0----0----0-0-0-0-0------||-----------0----0-0-0-0-|--0----0----0-0-0-0-0----|

    H        Q    S S S S    Q    Q    S S S S Q       H        Q    S S S S
e|------------------------|-------------------------|------------------------|
B|------------------------|-------------------------|------------------------|
G|------------------------|-------------------------|------------------------|
D|------------------------|-------------------------|------------------------|
A|--0--------L----0-0-0-0-|--0----0----0-0-0-0-0----|--0--------L----0-0-0-0-|
E|--0--------L----0-0-0-0-|--0----0----0-0-0-0-0----|--0--------L----0-0-0-0-|

    Q    Q    S S S S Q       H        Q    S S S S    Q    Q    S S S S Q
e|-------------------------|------------------------|-------------------------|
B|-------------------------|------------------------|-------------------------|
G|-------------------------|------------------------|-------------------------|
D|-------------------------|------------------------|-------------------------|
A|--0----0----0-0-0-0-0----|--0--------L----0-0-0-0-|--0----0----0-0-0-0-0----|
E|--0----0----0-0-0-0-0----|--0--------L----0-0-0-0-|--0----0----0-0-0-0-0----|

    H        Q    S S S S    Q    Q    S S S S Q       H        Q    S S S S
e|------------------------|-------------------------|------------------------|
B|------------------------|-------------------------|------------------------|
G|------------------------|-------------------------|------------------------|
D|------------------------|-------------------------|------------------------|
A|--0--------L----0-0-0-0-|--0----0----0-0-0-0-0----|--0--------L----0-0-0-0-|
E|--0--------L----0-0-0-0-|--0----0----0-0-0-0-0----|--0--------L----0-0-0-0-|

    Q    Q    S S S S Q         S S S S S S S S S S S S S S S S
e|-------------------------||-----------------------------------|
B|-------------------------||-----------------------------------|
G|-------------------------||*----------------------------------|
D|-------------------------||*----------------------------------|
A|--0----0----0-0-0-0-0----||---8-----8-----8---5-----5-----5---|
E|--0----0----0-0-0-0-0----||-----0-0---0-0---0---0-0---0-0---0-|

     S S S  S S S  S S S S S S S S S S    S S S S S S S S S S S S S S S S
e|-------------------------------------|----------------------------------|
B|-------------------------------------|----------------------------------|
G|-------------------------------------|----------------------------------|
D|-------------------------------------|----------------------------------|
A|--10-----10-----10---8-----8-----8---|--7-----7-----7---8-----8-----8---|
E|-----0-0----0-0----0---0-0---0-0---0-|----0-0---0-0---0---0-0---0-0---0-|

     TP TP  TP  TP  TP  TP
     E  E   E   E   E   E   S  S  S  S       S S S S S S S S S S S S S S S S
e|-------------------------12------------||----------------------------------|
B|----------------------------13---------||----------------------------------|
G|-------------------------------14----*-||----------------------------------|
D|----------------------------------14-*-||----------------------------------|
A|--10--8--12--10--13--12----------------||--8-----8-----8---5-----5-----5---|
E|---------------------------------------||----0-0---0-0---0---0-0---0-0---0-|

     S S S  S S S  S S S S S S S S S S    S S S S S S S S S S S S S S S S
e|-------------------------------------|----------------------------------|
B|-------------------------------------|----------------------------------|
G|-------------------------------------|----------------------------------|
D|-------------------------------------|----------------------------------|
A|--10-----10-----10---8-----8-----8---|--7-----7-----7---8-----8-----8---|
E|-----0-0----0-0----0---0-0---0-0---0-|----0-0---0-0---0---0-0---0-0---0-|

     TP TP  TP  TP  TP  TP
     E  E   E   E   E   E   S  S  S  S    S S S S S S S S S S S S S S S S
e|-------------------------12----------|----------------------------------|
B|----------------------------13-------|----------------------------------|
G|-------------------------------14----|----------------------------------|
D|----------------------------------14-|----------------------------------|
A|--10--8--12--10--13--12--------------|--8-----8-----8---5-----5-----5---|
E|-------------------------------------|----0-0---0-0---0---0-0---0-0---0-|

     S S S  S S S  S S S S S S S S S S    S S S S S S S S S S S S S S S S
e|-------------------------------------|----------------------------------|
B|-------------------------------------|----------------------------------|
G|-------------------------------------|----------------------------------|
D|-------------------------------------|----------------------------------|
A|--10-----10-----10---8-----8-----8---|--7-----7-----7---8-----8-----8---|
E|-----0-0----0-0----0---0-0---0-0---0-|----0-0---0-0---0---0-0---0-0---0-|

     TP TP  TP  TP  TP  TP
     E  E   E   E   E   E   S  S  S  S    Q    E  E  Q    E  E
e|-------------------------12----------|------------------------|
B|----------------------------13-------|------------------------|
G|-------------------------------14----|------------------------|
D|----------------------------------14-|------------------------|
A|--10--8--12--10--13--12--------------|--0----------5-------3--|
E|-------------------------------------|--0----0--0--5----0--3--|

    E  S S E  E  E  E  E  E     Q    E  E  Q    E  E
e|---------------------------|------------------------|
B|---------------------------|------------------------|
G|---------------------2--5--|------------------------|
D|------------0--3--5--------|------------------------|
A|--L--0-5-8-----------------|--0----------5-------3--|
E|--L------------------------|--0----0--0--5----0--3--|

    E  S S E  E  E  E  E  E     Q    E  E  Q    E  E
e|---------------------------|------------------------|
B|---------------------------|------------------------|
G|---------------------2--5--|------------------------|
D|------------0--3--5--------|------------------------|
A|--L--0-5-8-----------------|--0----------5-------3--|
E|--L------------------------|--0----0--0--5----0--3--|

    E  S S E  E  E  E  E  E     Q    E  E  Q    E  E
e|---------------------------|------------------------|
B|---------------------------|------------------------|
G|---------------------2--5--|------------------------|
D|------------0--3--5--------|------------------------|
A|--L--0-5-8-----------------|--0----------5-------3--|
E|--L------------------------|--0----0--0--5----0--3--|

    E  S S E  E  E  E  E  E       Q    E  E  Q    E  E
e|---------------------------||-------------------------|
B|---------------------------||-------------------------|
G|---------------------2--5--||*------------------------|
D|------------0--3--5--------||*------------------------|
A|--L--0-5-8-----------------||---0----------5-------3--|
E|--L------------------------||---0----0--0--5----0--3--|

    E  S S E  E  E  E  E  E        E  Q    E  E  Q    S S
e|-----------------------------||-------------------------|
B|-----------------------------||-------------------------|
G|---------------------2--5--*-||-------------------------|
D|------------0--3--5--------*-||-------------------------|
A|--L--0-5-8-------------------||--0-------0--0-----------|
E|--L--------------------------||--1-------1--1-----------|

    Q    S E  E  E  T T S E  T T    S Q    E  E  Q    E  S
e|-------------------------------|---------------------------|
B|-------------------------------|---------------------------|
G|-------------------------------|---------------------------|
D|-------------------------------|---------------------------|
A|--0----0-L--0--0--0-0-0-0--0-0-|--0-0----L--0--0----L--0---|
E|--1----1-L--1--1--1-1-1-1--1-1-|--1-1----L--1--1----L--1---|

    S E  S S E  E  S T T S E  E     Q    E  E  Q    E  S S
e|-------------------------------|-------------------------|
B|-------------------------------|-------------------------|
G|-------------------------------|-------------------------|
D|-------------------------------|-------------------------|
A|----L--0---L--0--0-0-0-0-0--0--|--0----L--0--0----L--0---|
E|----L--1---L--1--1-1-1-1-1--1--|--0----L--0--0----L--0---|

    E  S S E  E  E  T T S E  E     Q    E  E  Q    E  S S
e|------------------------------|-------------------------|
B|------------------------------|-------------------------|
G|------------------------------|-------------------------|
D|------------------------------|-------------------------|
A|--L--0---L--0--0--0-0-0-0--0--|--0----L--0--0----L--0---|
E|--L--0---L--0--0--0-0-0-0--0--|--0----L--0--0----L--0---|

    E  S S E  E  E  T T S E  E       Q    E  E  Q    E  S S
e|------------------------------||--------------------------|
B|------------------------------||--------------------------|
G|------------------------------||*-------------------------|
D|------------------------------||*-------------------------|
A|--L--0---L--0--0--0-0-0-0--0--||---0----L--0--0----L--0---|
E|--L--0---L--0--0--0-0-0-0--0--||---1----L--1--1----L--1---|

    E  S S E  E  E  T T S E  E        W                   W
e|--------------------------------||-------------------|-------------------|
B|--------------------------------||-------------------|-------------------|
G|------------------------------*-||-------------------|-------------------|
D|------------------------------*-||-------------------|-------------------|
A|--L--0---L--0--0--0-0-0-0--0----||--0----------------|--L----------------|
E|--L--1---L--1--1--1-1-1-1--1----||--0----------------|--L----------------|

    S S S S S S S S S S S S S S S S     S S S  S S S  S S S S S S S S S S
e|----------------------------------|-------------------------------------|
B|----------------------------------|-------------------------------------|
G|----------------------------------|-------------------------------------|
D|----------------------------------|-------------------------------------|
A|--8-----8-----8---5-----5-----5---|--10-----10-----10---8-----8-----8---|
E|----0-0---0-0---0---0-0---0-0---0-|-----0-0----0-0----0---0-0---0-0---0-|

    S S S S S S S S S S S S S S S S    S S S S S S S S S S S S S S S S
e|----------------------------------|----------------------------------|
B|----------------------------------|----------------------------------|
G|----------------------------------|----------------------------------|
D|----------------------------------|----------------------------------|
A|--7-----7-----7---8-----8-----8---|--8-----8-----8---8-----8-----8---|
E|----0-0---0-0---0---0-0---0-0---0-|----0-0---0-0---0---0-0---0-0---0-|

    S S S S S S S S S S S S S S S S     S S S  S S S  S S S S S S S S S S
e|----------------------------------|-------------------------------------|
B|----------------------------------|-------------------------------------|
G|----------------------------------|-------------------------------------|
D|----------------------------------|-------------------------------------|
A|--8-----8-----8---5-----5-----5---|--10-----10-----10---8-----8-----8---|
E|----0-0---0-0---0---0-0---0-0---0-|-----0-0----0-0----0---0-0---0-0---0-|

    S S S S S S S S S S S S S S S S    S S S S S S S S S S S S S S S S
e|----------------------------------|----------------------------------|
B|----------------------------------|----------------------------------|
G|----------------------------------|----------------------------------|
D|----------------------------------|----------------------------------|
A|--7-----7-----7---8-----8-----8---|--8-----8-----8---8-----8-----8---|
E|----0-0---0-0---0---0-0---0-0---0-|----0-0---0-0---0---0-0---0-0---0-|

    H        Q       H        Q       H        Q       Q    H
e|----------------|----------------|----------------|----------------|
B|----------------|----------------|----------------|----------------|
G|----------------|----------------|----------------|----------------|
D|----------------|----------------|----------------|----------------|
A|--8--------L----|--7--------L----|--0--------L----|-------L--------|
E|--8--------L----|--7--------L----|--0--------L----|-------L--------|

    H        Q       H        Q       H        Q       Q    H
e|----------------|----------------|----------------|----------------|
B|----------------|----------------|----------------|----------------|
G|----------------|----------------|----------------|----------------|
D|----------------|----------------|----------------|----------------|
A|--8--------L----|--7--------L----|--0--------L----|-------L--------|
E|--8--------L----|--7--------L----|--0--------L----|-------L--------|

    H        Q       H        Q       H        Q       Q    H
e|----------------|----------------|----------------|----------------|
B|----------------|----------------|----------------|----------------|
G|----------------|----------------|----------------|----------------|
D|----------------|----------------|----------------|----------------|
A|--8--------L----|--7--------L----|--0--------L----|-------L--------|
E|--8--------L----|--7--------L----|--0--------L----|-------L--------|

    H        Q       H        Q       H        Q       Q    H
e|----------------|----------------|----------------|----------------|
B|----------------|----------------|----------------|----------------|
G|----------------|----------------|----------------|----------------|
D|----------------|----------------|----------------|----------------|
A|--8--------L----|--7--------L----|--0--------L----|-------L--------|
E|--8--------L----|--7--------L----|--0--------L----|-------L--------|

    H        Q       H        Q       H        Q       Q    H
e|----------------|----------------|----------------|----------------|
B|----------------|----------------|----------------|----------------|
G|----------------|----------------|----------------|----------------|
D|----------------|----------------|----------------|----------------|
A|--8--------L----|--7--------L----|--0--------L----|-------L--------|
E|--8--------L----|--7--------L----|--0--------L----|-------L--------|

    H        Q
e|-------------------|
B|-------------------|
G|-------------------|
D|-------------------|
A|-----------L-------|
E|-----------L-------|


Duration Legend
---------------
W - whole
H - half
Q - quarter
E - 8th
S - 16th
T - 32nd
X - 64th
. - note dotted
|-n-|  - n-tuplets


Tablature Legend
----------------
L - tied note
x - dead note
g - grace note
(n) - ghost note
> - accentuded note
NH - natural harmonic
AH - artificial harmonic
TH - tapped harmonic
SH - semi harmonic
PH - pitch harmonic
h - hammer on
p - pull off
b - bend
br - bendRelease
pb - preBend
pbr - preBendRelease
brb - bendReleaseBend
\n/ - tremolo bar dip
\n - tremolo bar dive
-/n - tremolo bar Release up
/n\ - tremolo bar inverted dip
/n - tremolo bar return
-\n - tremolo bar Release down
S - shift slide
s - legato slide
/ -  slide into from below or out of upwards
\ -  slide into from above or out of downwards
~ - vibrato
W - wide vibrato
tr - tril'
TP - tremolo picking
T - tapping
S - slap
P - pop
< - fade in
^ - brush up
v - brush down

            
            
Suggest correction
Creating personal tab
Creating personal tab
You can edit any tab online and save it as your Personal.

You can edit, replace or remove any tab part or add personal notes – all changes will be seen only by you.

Personal tabs can be accessed anytime from any device, even offline.
Learn more »
comments
print report bad tab
5 comments total. Showing first comments.
+1 reply
guitar_freak91 1,101 Jan 22, 2008 06:26 AM

this isnt your work, this is taken from the bands myspace just with all the timing added in, you should put that in
here. who gave this one star though? its obviously right...

0 reply
GuitarsIsNeat 53 Aug 21, 2008 02:33 PM

this is not from WOP's myspace, alot of it is way different

0 reply
Lil JP 10 Oct 20, 2008 04:12 PM

[quote]this is not from WOP's myspace, alot of it is way different[/quote]
So, does it mean it's not the right way to play it???

guest
You may want to rate the tab now too:
select rating
Wanna post a correction for this tab? Suggest correction