Oops, an error
Loading. Please wait.

The Impaler tab

version 1
version 1

Whole song

Interactive

14,583 views 1 this week
3 commentsread comments
1 2 3 4 5
x 6
add to favorites
×
Save as Personal and add changes to this tab that will be seen only by you. Learn more ›
×
You can save this tab as Personal to edit and correct it or add notes. All changes will be seen only by you. Learn more »
launch autoscroll
font size
0
reset
how to read this tab
guitar tuner
edit
Autoscroll
slow
fast
+/-
esc
set tempo
stop
This is my first TAB. made it for ppl who dont have GP. sorry for hating on you guys haha Enjoy!
                                      |--3--|                       
     W                   H.           E  E  E     W                 
E||-------------------|------------------------|-------------------|
B||-------------------|------------------------|-------------------|
G||-------------------|------------------------|-------------------|
D||-------------------|------------------------|-------------------|
A||--0----------------|--L---------------------|--0----------------|
D||--0----------------|--L------------1--1--1--|--0----------------|


  |--3--|  |--3--|  |--3--|  |--3--|          |--3--|             
  E  E  E  E  E  E  E  E  E  E  E  E     Q    E  E  E  Q    Q     
--------------------------------------|--------------------------|
--------------------------------------|--------------------------|
--------------------------------------|--------------------------|
--------------------5--7--5--8--7--5--|--------------------------|
--5--6--5--9--6--5--------------------|-------6--6--6--5---------|
--------------------------------------|--0------------------0----|


  |--3--|       |--3--|               |--3--|             
  E  E  E  Q    E  E  E  Q       Q    E  E  E  Q    Q     
------------------------------|--------------------------|
------------------------------|--------------------------|
-------------------------7----|--------------------------|
------------------------------|--------------------------|
-------------------------5----|-------6--6--6--5---------|
--1--1--1--4----0--0--0-------|--0------------------0----|


  |--3--|  |--3--|  |--3--|  |--3--|          |--3--|             
  E  E  E  E  E  E  E  E  E  E  E  E     Q    E  E  E  Q    Q     
--------------------------------------|--------------------------|
--------------------------------------|--------------------------|
--------------------------------------|--------------------------|
--------------------5--7--5--8--7--5--|--4----5--7--5--4---------|
--5--6--5--9--6--5--------------------|--------------------------|
--------------------------------------|---------------------0----|


  |--3--|       |--3--|               |--3--|       |--3--|   
  E  E  E  Q    E  E  E  Q       Q    E  E  E  Q    E  E  E   
------------------------------|------------------------------|
------------------------------|------------------------------|
-------------------------8----|--7---------------------------|
------------------------------|------------------------------|
-------------------------6----|--5---------------------------|
--1--1--1--4----0--0--0-------|-------1--1--1--0----0--0--0--|


  |-3-| |-3-| |-3-| |-3-| |-3-| |-3-|         |--3--|  |--3--|             
  S S S S S S S S S S S S S S S S S S Q       E  E  E  E  E  E  Q    Q     
-------------------------------------------|------------------------------|
-------------------------------------------|------------------------------|
-------------------------------------------|------------------------------|
--0-0-0-0-0-0-1-1-1-1-1-1-5-5-5-5-5-5-4----|------------------------------|
-------------------------------------------|------------------------------|
-------------------------------------------|--0--0--0--0--0--0-------1----|


       |--3--|       |--3--|     |-3| |3|  |--3--|  |--3--|  |--3--|   
  Q    E  E  E  Q    E  E  E     E  S S E  E  E  E  E  E  E  E  E  E   
------------------------------|---------------------------------------|
------------------------------|---------------------------------------|
------------------------------|---------------------------------------|
------------------------------|---------------------------------------|
------------------------------|---------------------------------------|
--4----5--7--5--4----1--1--1--|--0--0-0-0--0--0--0--0--0--0--0--0--0--|


  |--3--|  |--3--|  |--3--|  |--3--|          |--3--|  |--3--|        
  E  E  E  E  E  E  E  E  E  E  E  E     Q    E  E  E  E  E  E  Q     
--------------------------------------|------------------------------|
--------------------------------------|------------------------------|
--------------------------------------|------------------------------|
--------------------5--7--5--8--7--5--|--4---------------------------|
--5--6--5--9--6--5--------------------|------------------------------|
--------------------------------------|-------0--0--0--0--0--0--1----|


       |--3--|       |--3--|     |-3| |3|  |--3--|  |--3--|  |--3--|   
  Q    E  E  E  Q    E  E  E     E  S S E  E  E  E  E  E  E  E  E  E   
------------------------------|---------------------------------------|
------------------------------|---------------------------------------|
------------------------------|---------------------------------------|
------------------------------|---------------------------------------|
------------------------------|---------------------------------------|
--4----5--7--5--4----1--1--1--|--0--0-0-0--0--0--0--0--0--0--0--0--0--|


  |-3-| |-3-| |-3-| |-3-| |-3-| |-3-|         |--3--|  |--3--|             
  S S S S S S S S S S S S S S S S S S Q       E  E  E  E  E  E  Q    Q     
-------------------------------------------|------------------------------|
-------------------------------------------|------------------------------|
-------------------------------------------|------------------------------|
-------------------------------------------|------------------------------|
--5-5-5-5-5-5-6-6-6-6-6-6-5-5-5-5-5-5-9----|------------------------------|
-------------------------------------------|--0--0--0--0--0--0-------1----|


       |--3--|       |--3--|     |-3| |3|  |--3--|  |--3--|  |--3--|   
  Q    E  E  E  Q    E  E  E     E  S S E  E  E  E  E  E  E  E  E  E   
------------------------------|---------------------------------------|
------------------------------|---------------------------------------|
------------------------------|---------------------------------------|
------------------------------|---------------------------------------|
------------------------------|---------------------------------------|
--4----5--7--5--4----1--1--1--|--0--0-0-0--0--0--0--0--0--0--0--0--0--|


  |--3--|  |--3--|  |--3--|  |--3--|          |--3--|  |--3--|        
  E  E  E  E  E  E  E  E  E  E  E  E     Q    E  E  E  E  E  E  Q     
--------------------------------------|------------------------------|
--------------------------------------|------------------------------|
--------------------------------------|------------------------------|
--------------------5--7--5--8--7--5--|--4---------------------------|
--5--6--5--9--6--5--------------------|------------------------------|
--------------------------------------|-------0--0--0--0--0--0--1----|


       |--3--|       |--3--|     |-3| |3|  |--3--|  |--3--|  |--3--|   
  Q    E  E  E  Q    E  E  E     E  S S E  E  E  E  E  E  E  E  E  E   
------------------------------|---------------------------------------|
------------------------------|---------------------------------------|
------------------------------|---------------------------------------|
------------------------------|---------------------------------------|
------------------------------|---------------------------------------|
--4----5--7--5--4----1--1--1--|--0--0-0-0--0--0--0--0--0--0--0--0--0--|


  |--3--|  |--3--|  |-3| |3|  |--3--|   
  E  E  E  E  E  E  E  S S E  E  E  E   
---------------------------------------|
---------------------------------------|
---------------------------------------|
---------------------------------------|
---------------------------------------|
--0--0--0--0--0--0--0--0-0-0-----------|


                  |-3-| |-3-| |-3-| |-3-|                                  
  S S S S S S S S S S S S S S S S S S S S    Q    S S S S S S S S S S S S  
------------------------------------------|-------------------------------|
------------------------------------------|-------------------------------|
------------------------------------------|-------------------------------|
------------------------------------------|-------------------------------|
------------------------------------------|--1----------------------------|
--0-0-0-0-0-0-0-0-0-0-0-0-----0-0-0-0-----|--1----0-0-0-0-1-4-1-0-4-7-4-0-|


            |-3-|                                            
  Q    Q    S S S Q    E     E  S S S S S S S S S S S S S S  
--------------------------|---------------------------------|
--------------------------|---------------------------------|
--------------------------|---------------------------------|
--------------------------|---------------------------------|
--8----7----5-7-5-1----4--|--L----------3-3-6-6-3-3-9-9-6-6-|
--8----7----5-7-5-1----4--|--L--4-4-7-7---------------------|


                  |-3-| |-3-| |-3-| |-3-|                                  
  S S S S S S S S S S S S S S S S S S S S    Q    S S S S S S S S S S S S  
------------------------------------------|-------------------------------|
------------------------------------------|-------------------------------|
------------------------------------------|-------------------------------|
------------------------------------------|-------------------------------|
------------------------------------------|--1----------------------------|
--0-0-0-0-0-0-0-0-0-0-0-0-----0-0-0-0-----|--1----0-0-0-0-1-4-1-0-4-7-4-0-|


            |-3-|                                            
  Q    Q    S S S Q    E     E  S S S S S S S S S S S S S S  
--------------------------|---------------------------------|
--------------------------|---------------------------------|
--------------------------|---------------------------------|
--------------------------|---------------------------------|
--8----7----5-7-5-1----4--|--L----------3-3-6-6-3-3-9-9-6-6-|
--8----7----5-7-5-1----4--|--L--4-4-7-7---------------------|


  W                   Q    Q    Q    Q       Q.     E  H         
-------------------|----------------------|---------------------|
-------------------|----------------------|---------------------|
--7----------------|--L----5----8----7----|--7------5--5--------|
-------------------|----------------------|---------------------|
--5----------------|--L----3----6----5----|--5------3--3--------|
-------------------|----------------------|---------------------|


  Q    Q    Q    Q       Q.     E  H           Q    Q    Q    Q     
----------------------|---------------------|----------------------|
----------------------|---------------------|----------------------|
--L----3----7----3----|--3------2--2--------|--L-------------------|
----------------------|---------------------|-------5----8----5----|
--L----1----5----1----|--1------0--0--------|--L-------------------|
----------------------|---------------------|-------5----8----5----|


  H.           Q       H        E  E  E  E     Q    Q    E  E  Q     
--------------------|-----------------------|-----------------------|
--------------------|-----------------------|-----------------------|
--------------------|-----------------------|------------------8----|
--4-----------------|-----------------------|-----------------------|
---------------1----|--0--------L-----------|--8----7----------6----|
--4------------1----|--0--------L--0--0--0--|--8----7----0--0-------|


  W                   Q    Q    Q    Q       Q.     E  H         
-------------------|----------------------|---------------------|
-------------------|----------------------|---------------------|
--7----------------|--L----5----8----7----|--7------5--5--------|
-------------------|----------------------|---------------------|
--5----------------|--L----3----6----5----|--5------3--3--------|
-------------------|----------------------|---------------------|


  Q    Q    Q    Q       Q.     E  H           Q    Q    Q    Q     
----------------------|---------------------|----------------------|
----------------------|---------------------|----------------------|
--L----3----7----3----|--3------2--2--------|--L-------------------|
----------------------|---------------------|-------5----8----5----|
--L----1----5----1----|--1------0--0--------|--L-------------------|
----------------------|---------------------|-------5----8----5----|


  H.           Q       H        E  E  E  E     W                 
--------------------|-----------------------|-------------------|
--------------------|-----------------------|-------------------|
--------------------|-----------------------|-------------------|
--4-----------------|-----------------------|-------------------|
---------------1----|--0--------L-----------|--5----------------|
--4------------1----|--0--------L--0--0--0--|--5----------------|


  W                                                                             
-------------------|-------------------|-------------------|-------------------|
-------------------|-------------------|-------------------|-------------------|
-------------------|-------------------|-------------------|-------------------|
-------------------|-------------------|-------------------|-------------------|
--L----------------|-------------------|-------------------|-------------------|
--L----------------|-------------------|-------------------|-------------------|


-------------------|-------------------|-------------------|-------------------|
-------------------|-------------------|-------------------|-------------------|
-------------------|-------------------|-------------------|-------------------|
-------------------|-------------------|-------------------|-------------------|
-------------------|-------------------|-------------------|-------------------|
-------------------|-------------------|-------------------|-------------------|


-------------------|-------------------|-------------------|-------------------|
-------------------|-------------------|-------------------|-------------------|
-------------------|-------------------|-------------------|-------------------|
-------------------|-------------------|-------------------|-------------------|
-------------------|-------------------|-------------------|-------------------|
-------------------|-------------------|-------------------|-------------------|


  W                   W                 
-------------------|-------------------|
-------------------|-------------------|
-------------------|-------------------|
--4----------------|--1----------------|
-------------------|-------------------|
--4----------------|--1----------------|


  |--3--|  |--3--|  |-3-| |-3-| |--3--|   
  E  E  E  E  E  E  S S S S S S E  E  E   
-----------------------------------------|
-----------------------------------------|
-----------------------------------------|
-----------------------------------------|
--------------------6-6-6-6-6-6----------|
--0--0--0--0--0--0--------------0--0--0--|


  |--3--|  |--3--|  |--3--|  |--3--|   
  E  E  E  E  E  E  E  E  E  E  E  E   
--------------------------------------|
--------------------------------------|
--------------------------------------|
--------------------------------------|
--3--------6--------5--6--5--9--6--5--|
-----0--0-----0--0--------------------|


  |--3--|  |--3--|  |--3--|  |-3-| |-3-|  
  E  E  E  E  E  E  E  E  E  S S S S S S  
-----------------------------------------|
-----------------------------------------|
-----------------------------------------|
-----------------------------------------|
-----------------------------------------|
--0--0--0--0--0--0--0--0--0--1-1-1-1-1-1-|


  |--3--|  |--3--|  |--3--|  |--3--|   
  E  E  E  E  E  E  E  E  E  E  E  E   
--------------------------------------|
--------------------------------------|
--------------------------------------|
--------------------------------------|
--------------------------------------|
--4--5--4--7--5--4--1--4--1--0--0--0--|


  |--3--|  |--3--|  |-3-| |-3-| |--3--|   
  E  E  E  E  E  E  S S S S S S E  E  E   
-----------------------------------------|
-----------------------------------------|
-----------------------------------------|
-----------------------------------------|
--------------------6-6-6-6-6-6----------|
--0--0--0--0--0--0--------------0--0--0--|


  |--3--|  |--3--|  |--3--|   |--3--|   
  E  E  E  E  E  E  E  E  E   E  E  E   
---------------------------------------|
---------------------------------------|
---------------------------------------|
---------------------------------------|
--3--------6--------6--9--6--10--9--6--|
-----0--0-----0--0---------------------|


  |--3--|  |--3--|  |-3-| |-3-| |--3--|   
  E  E  E  E  E  E  S S S S S S E  E  E   
-----------------------------------------|
-----------------------------------------|
-----------------------------------------|
-----------------------------------------|
--------------------6-6-6-6-6-6----------|
--0--0--0--0--0--0--------------0--0--0--|


  |--3--|  |--3--|  |--3--|  |--3--|          |--3--|             
  E  E  E  E  E  E  E  E  E  E  E  E     Q    E  E  E  Q    Q     
--------------------------------------|--------------------------|
--------------------------------------|--------------------------|
--------------------------------------|--------------------------|
--------------------5--7--5--8--7--5--|--4----5--7--5--4---------|
--5--6--5--9--6--5--------------------|--------------------------|
--------------------------------------|---------------------1----|


       |--3--|       |--3--|     |--3--|  |--3--|  |-3-| |-3-| |--3--|   
  Q    E  E  E  Q    E  E  E     E  E  E  E  E  E  S S S S S S E  E  E   
------------------------------|-----------------------------------------|
------------------------------|-----------------------------------------|
------------------------------|-----------------------------------------|
------------------------------|-----------------------------------------|
------------------------------|--------------------6-6-6-6-6-6----------|
--4----5--7--5--4----1--1--1--|--0--0--0--0--0--0--------------0--0--0--|


                                             |--3--|                 
  W                   Q    Q    Q    Q       E  E  E  Q    H         
-------------------|----------------------|-------------------------|
-------------------|----------------------|-------------------------|
--7----------------|--L----5----8----7----|-----------7----5--------|
-------------------|----------------------|-------------------------|
--5----------------|--L----3----6----5----|-----------5----3--------|
-------------------|----------------------|--0--0--0----------------|


       |--3--|  |--3--|  |--3--|     |--3--|            |--3--|   
  Q    E  E  E  E  E  E  E  E  E     E  E  E  Q    Q    E  E  E   
----------------------------------|------------------------------|
----------------------------------|------------------------------|
--L-------------------------------|-----------3----2-------------|
----------------------------------|------------------------------|
--L-------------------------------|-----------1----0-------------|
-------0--0--0--0--0--0--0--0--0--|--0--0--0------------0--0--0--|


  |--3--|  |-3-| |-3-| |-3-| |-3-| |--3--|   
  E  E  E  S S S S S S S S S S S S E  E  E   
--------------------------------------------|
--------------------------------------------|
--------------------------------------------|
-----------1-1-1-1-1-1-4-4-4-4-4-4----------|
--------------------------------------------|
--0--0--0--------------------------0--0--0--|


  |--3--|  |--3--|  |--3--|  |--3--|     |--3--|  |--3--|  |--3--|  |--3--|   
  E  E  E  E  E  E  E  E  E  E  E  E     E  E  E  E  E  E  E  E  E  E  E  E   
--------------------------------------|--------------------------------------|
--------------------------------------|--------------------------------------|
--------------------------------------|--------------------------------------|
--------------------------------------|--------------------------------------|
--5--6--5--9--6--5--------------------|--5--6--5--9--6--5--------------------|
--------------------------------------|--------------------------------------|


  |--3--|  |--3--|  |--3--|  |--3--|     3    
  E  E  E  E  E  E  E  E  E  E  E  E     E    
--------------------------------------|-----||
--------------------------------------|-----||
--------------------------------------|-----||
--------------------5--7--5--8--7--4--|--5--||
--5--6--5--9--6--5--------------------|-----||
--------------------------------------|-----||




Duration Legend
---------------
W - whole
H - half
Q - quarter
E - 8th
S - 16th
T - 32nd
X - 64th
. - note dotted
|-n-|  - n-tuplets


Tablature Legend
----------------
L - tied note
x - dead note
g - grace note
(n) - ghost note
> - accentuded note
NH - natural harmonic
AH - artificial harmonic
TH - tapped harmonic
SH - semi harmonic
PH - pitch harmonic
h - hammer on
p - pull off
b - bend
br - bendRelease
pb - preBend
pbr - preBendRelease
brb - bendReleaseBend
\n/ - tremolo bar dip
\n - tremolo bar dive
-/n - tremolo bar Release up
/n\ - tremolo bar inverted dip
/n - tremolo bar return
-\n - tremolo bar Release down
S - shift slide
s - legato slide
/ -  slide into from below or out of upwards
\ -  slide into from above or out of downwards
~ - vibrato
W - wide vibrato
tr - trill
TP - tremolo picking
T - tapping
S - slap
P - pop
< - fade in
^ - brush up
v - brush down

            
            
Suggest correction
Creating personal tab
Creating personal tab
You can edit any tab online and save it as your Personal.

You can edit, replace or remove any tab part or add personal notes – all changes will be seen only by you.

Personal tabs can be accessed anytime from any device, even offline.
Learn more »
comments
print report bad tab
3 comments total.
+2 reply
emr_steelmech 94 Apr 09, 2010 08:28 PM

There's one part right before the "F*ck you, get the f*ck out" riff that you have as open D palm muting, but it should be tremolo picking on high D: 0-1-5-4. Otherwise, you're missing a few parts, but everything else you do have is spot on. 4/5

+1 reply
metalgod97 315 Apr 10, 2010 07:12 PM

@emr_steelmech Thanks for the constructive critiscism

+2 reply
luis izaguirre 31 Apr 15, 2010 11:55 AM

nice job on the tab, its and fun song to play along with

guest
You may want to rate the tab now too:
select rating
Wanna post a correction for this tab? Suggest correction