Oops, an error
Loading. Please wait.

Like A Ritual bass

version 1
version 1

Whole song

Interactive

by Winger
184 views 1 this week
no commentswrite comment
1 2 3 4 5
3 more votes to show rating
add to favorites
×
Save as Personal and add changes to this tab that will be seen only by you. Learn more ›
×
You can save this tab as Personal to edit and correct it or add notes. All changes will be seen only by you. Learn more »
launch autoscroll
font size
0
reset
guitar tuner
edit
Autoscroll
slow
fast
+/-
esc
set tempo
stop
Author
-------------------------------------------------------------------------------
			     LIKE A RITUAL - Winger
-------------------------------------------------------------------------------

Tabbed By : Isaias Garcia

Tuning: tune down 1/2 step



      W                   E  E  E  E  E.  S E  E     E  E  E  E  Q    E  E   
F#||-------------------|--------------------------|-------------------------|
C#||-------------------|--------------------------|-------------------------|
G#||-------------------|--------------------------|-------------------5--5--|
D#||-------------------|--0--0--2--0--3---5----0--|-----0--2--0--3----------|


  E  E  E  E  E.  S E   E     E  E  E  E  Q    E  E     E  E  E  E  E.  S E  E   
---------------------------|-------------------------|--------------------------|
---------------------------|-------------------------|--------------------------|
---------------------------|-------------------5--5--|--------------------------|
-----0--2--0--3---5-L\--0--|-----0--2--0--3----------|--0--0--2--0--3---5----0--|


  E  E  E  E  Q    E  E     E  E  E  E  E.   S E   E     E  E  E  E  Q     E  E   
-------------------------|----------------------------|--------------------------|
-------------------------|----------------------------|--------------------------|
-------------------5--5--|----------------------------|--------------------5--5--|
-----0--2--0--3----------|-----0--2--0--3~---5-L\--0--|-----0--2--0--3~----------|


  E  S S E  E  E  S S E  E     E  S S E  E  E.   S S S E     E  S S E  E  E  S S E  E   
----------------------------|-----------------------------|----------------------------|
----------------------------|--------------------2--------|----------------------------|
--3--0-0----0--2--0-0----0--|--3--0-0----0--5~-----5-3-2--|--3--0-0----0--2--0-0----0--|
----------------------------|-----------------------------|----------------------------|


  E  S S E  E  E   E  S S E     E  S S E  E  E  S S E  E     E  S S E  E  Q     Q      
-----------------------------|----------------------------|---------------------------|
-----------------------------|----------------------------|---------------------------|
--3--0-0----5--L~--7--6-5-3--|--3--0-0----0--2--0-0----0--|--3--0-0----5--L-----------|
-----------------------------|----------------------------|--------------------12\----|


  S S S S E  E  S S E  E  E     S S S S E  E  S S S S S E.     S S S S E  E  S S E  E  E   
-----------------------------|------------------------------|-----------------------------|
-----------------------------|------------------------------|-----------------------------|
----------5------------5-----|----------5---------5---4-----|----------5------------5-----|
--0-0-0-0----0----0-0-----0--|--0-0-0-0----0----0---0---3---|--0-0-0-0----0----0-0-----0--|


  S S S S E  E  S S S S Q        S S S S E  E  S S E  E  E     S S S S E  E  S S S S S E.   
------------------------------|-----------------------------|------------------------------|
------------------------------|-----------------------------|------------------------------|
----------5---------5---3\----|----------5------------5-----|----------5---------5---4-----|
--0-0-0-0----0----0---0-------|--0-0-0-0----0----0-0-----0--|--0-0-0-0----0----0---0---3---|


  S S S S E  E  S S E  E  E     S S S S S S E  Q    S S S S    E  E  E  E  E.   S E  E   
-----------------------------|------------------------------|---------------------------|
-----------------------------|------------------------------|---------------------------|
----------5------------5-----|----------5---3--L------------|---------------------------|
--0-0-0-0----0----0-0-----0--|--0-0-0-0---0---------3-5-5-3-|--0--0--2--0--3~---5----0--|


  E  E  E  E  Q    E  E     E  E  E  E  E.   S E   E     E  E  E  E  Q     E   E   
-------------------------|----------------------------|---------------------------|
-------------------------|----------------------------|-------------------12--12--|
-------------------5--5--|----------------------------|---------------------------|
-----0--2--0--3----------|-----0--2--0--3~---5-L\--0--|-----0--2--0--3------------|


  E  E  E  E  E.   S E  E     E  E  E  E  Q    E  E     E  E  E  E  E.   S E   E   
---------------------------|-------------------------|----------------------------|
---------------------------|-------------------------|----------------------------|
---------------------------|-------------------5--5--|----------------------------|
--0--0--2--0--3~---5----0--|-----0--2--0--3----------|-----0--2--0--3~---5-L\--0--|


  E  E  E  E  Q    E  E     E  S S E  E  E  S S E  E     E  S S E  E  E.   S S S E   
-------------------------|----------------------------|-----------------------------|
-------------------------|----------------------------|--------------------2--------|
-------------------5--5--|--3--0-0----0--2--0-0----0--|--3--0-0----0--5~-----5-3-2--|
-----0--2--0--3----------|----------------------------|-----------------------------|


  E  S S E  E  E  S S E  E     E  S S E  E  E   E  S S E     E  S S E  E  E  S S E  E   
----------------------------|-----------------------------|----------------------------|
----------------------------|-----------------------------|----------------------------|
--3--0-0----0--2--0-0----0--|--3--0-0----5--L~--7--6-5-3--|--3--0-0----0--2--0-0----0--|
----------------------------|-----------------------------|----------------------------|


  E  S S E  E  Q     Q        S S S S E  E  S S E  E  E     S S S S E  E  S S S S S E.   
---------------------------|-----------------------------|------------------------------|
---------------------------|-----------------------------|------------------------------|
--3--0-0----5--L-----------|----------5------------5-----|----------5---------5---4-----|
--------------------12\----|--0-0-0-0----0----0-0-----0--|--0-0-0-0----0----0---0---3---|


  S S S S E  E  S S E  E  E     S S S S E  E  S S S S Q        S S S S E  E  S S E  E  E   
-----------------------------|------------------------------|-----------------------------|
-----------------------------|------------------------------|-----------------------------|
----------5------------5-----|----------5---------5---3\----|----------5------------5-----|
--0-0-0-0----0----0-0-----0--|--0-0-0-0----0----0---0-------|--0-0-0-0----0----0-0-----0--|


  S S S S E  E  S S S S S E.     S S S S E  E  S S E  E  E     S S S S S S E  Q    S S S S  
------------------------------|-----------------------------|------------------------------|
------------------------------|-----------------------------|------------------------------|
----------5---------5---4-----|----------5------------5-----|----------5---3--L------------|
--0-0-0-0----0----0---0---3---|--0-0-0-0----0----0-0-----0--|--0-0-0-0---0---------3-5-5-3-|


  S S E  E  E  Q    Q       S S E  E  E  Q    Q       S S E  E  E  Q    Q     
-------------------------|-------------------------|-------------------------|
-------------------------|-------------------------|-------------------------|
-------------------------|--2-4-4-----2--4---------|-------------------------|
--0-2-2-----0--2---------|-------------------------|--0-2-2-----0--2---------|


  S S E  E  E  Q    S S E     S S E  E  E  Q    Q       S S E  E  E  Q    Q     
---------------------------|-------------------------|-------------------------|
---------------------------|-------------------------|-------------------------|
--2-4-4-----2--L-----------|-------------------------|--2-4-4-----2--4---------|
--------------------5-4-2--|--0-2-2-----0--2---------|-------------------------|


  S S E  E  E  Q    Q       S S E  E  E  Q    S S E     E  S S Q    S S E  Q     
-------------------------|---------------------------|--------------------------|
-------------------------|---------------------------|-----2--------------------|
-------------------------|--2-4-4-----2--L-----------|-------5-4----4-2---------|
--0-2-2-----0--2---------|--------------------5-4-2--|------------------5-------|


  E  E  E  E  E.   S E  E     E  E  E  E  Q    E  E     E  E  E  E  E.  S E   E   
---------------------------|-------------------------|---------------------------|
---------------------------|-------------------------|---------------------------|
---------------------------|-------------------5--5--|---------------------------|
--0--0--2--0--3~---5----0--|-----0--2--0--3----------|-----0--2--0--3---5-L\--0--|


  E  E  E  E  Q     E   E     E  E  E  E  E.   S E  E     E  E  E  E  Q    E  E   
---------------------------|---------------------------|-------------------------|
-------------------12--12--|---------------------------|-------------------------|
---------------------------|---------------------------|-------------------5--5--|
-----0--2--0--3------------|--0--0--2--0--3~---5----0--|-----0--2--0--3----------|


  E  E  E  E  E.  S E   E     E  E  E  E  Q    E  E     E  S S E  E  E  S S E  E   
---------------------------|-------------------------|----------------------------|
---------------------------|-------------------------|----------------------------|
---------------------------|-------------------5--5--|--3--0-0----0--2--0-0----0--|
-----0--2--0--3---5-L\--0--|-----0--2--0--3----------|----------------------------|


  E  S S E  E  E.   S S S E     E  S S E  E  E  S S E  E     E  S S E  E  E   E  S S E   
-----------------------------|----------------------------|-----------------------------|
--------------------2--------|----------------------------|-----------------------------|
--3--0-0----0--5~-----5-3-2--|--3--0-0----0--2--0-0----0--|--3--0-0----5--L~--7--6-5-3--|
-----------------------------|----------------------------|-----------------------------|


  E  S S E  E  E  S S E  E     E  S S E  E  E  S S E  E     E  S S E  E  E  S S E  E   
----------------------------|----------------------------|----------------------------|
----------------------------|----------------------------|----------------------------|
--3--0-0----0--2--0-0----0--|--3--0-0----0--5--0-0----0--|--7--0-0----0--8--0-0----0--|
----------------------------|----------------------------|----------------------------|


  S S S S S S E  S S S S S S E     S E  S E  E  H           H        Q     Q      
--------------------------------|------------------------|-----------------------|
--6-7-6---5-4----2-3------------|------------------------|-----------------------|
--------7-----5------3-5-6------|---------5--------------|-----------------------|
---------------------------1-1--|--0-0--0----5-----------|----------------12\----|


  S S S S E  E  S S E  E  E     S S S S E  E  S S S S S E.     S S S S E  E  S S E  E  E   
-----------------------------|------------------------------|-----------------------------|
-----------------------------|------------------------------|-----------------------------|
----------5------------5-----|----------5---------5---4-----|----------5------------5-----|
--0-0-0-0----0----0-0-----0--|--0-0-0-0----0----0---0---3---|--0-0-0-0----0----0-0-----0--|


  S S S S E  E  S S S S Q        S S S S E  E  S S E  E  E     S S S S E  E  S S S S S E.   
------------------------------|-----------------------------|------------------------------|
------------------------------|-----------------------------|------------------------------|
----------5---------5---3\----|----------5------------5-----|----------5---------5---4-----|
--0-0-0-0----0----0---0-------|--0-0-0-0----0----0-0-----0--|--0-0-0-0----0----0---0---3---|


  S S S S E  E  S S E  E  E     S S S S S S E  Q     S S S S    S S S S S S S S S S S S S S S S  
-----------------------------|-------------------------------|----------------------------------|
-----------------------------|-------------------------------|----------------------------------|
----------5------------5-----|----------5---3--L\------------|----------------------------------|
--0-0-0-0----0----0-0-----0--|--0-0-0-0---0----------3-5-5-3-|--0-0-0-0-0-0-0-0-0-0-0-0-0-0-0-0-|


  S S S S S S S S S S S S S E.     S S S S E  E  S S E  E  E     S S S S E  E  S S S S Q      
--------------------------------|-----------------------------|------------------------------|
--------------------------------|-----------------------------|------------------------------|
----------------------5---4-----|----------5------------5-----|----------5---------5---3\----|
--0-0-0-0-0-0-0-0-0-0---0---3---|--0-0-0-0----0----0-0-----0--|--0-0-0-0----0----0---0-------|


  S S S S S S S S S S S S S S S S    S S S S S S S S S S S S S E.     S S S S E  E  S S E  E  E   
----------------------------------|--------------------------------|-----------------------------|
----------------------------------|--------------------------------|-----------------------------|
----------------------------------|----------------------5---4-----|----------5------------5-----|
--0-0-0-0-0-0-0-0-0-0-0-0-0-0-0-0-|--0-0-0-0-0-0-0-0-0-0---0---3---|--0-0-0-0----0----0-0-----0--|


  S S S S S S E  Q     S S S S    S S S S S S S S S S S S S S S S    S S S S S S S S S S S S S E.   
-------------------------------|----------------------------------|--------------------------------|
-------------------------------|----------------------------------|--------------------------------|
----------5---3--L\------------|----------------------------------|----------------------5---4-----|
--0-0-0-0---0----------3-5-5-3-|--0-0-0-0-0-0-0-0-0-0-0-0-0-0-0-0-|--0-0-0-0-0-0-0-0-0-0---0---3---|


  S S S S S S S S S S S S S S S S    S S S S S S S S S S S S S E.   
----------------------------------|--------------------------------|
----------------------------------|--------------------------------|
----------------------------------|----------------------5---4-----|
--0-0-0-0-0-0-0-0-0-0-0-0-0-0-0-0-|--0-0-0-0-0-0-0-0-0-0---0---3---|


  S S S S S S S S S S S S S S S S    S S S S S S S S S S S S S E.     S S S S E  E  S S E  E  E   
----------------------------------|--------------------------------|-----------------------------|
----------------------------------|--------------------------------|-----------------------------|
----------------------------------|----------------------5---4-----|----------5------------5-----|
--0-0-0-0-0-0-0-0-0-0-0-0-0-0-0-0-|--0-0-0-0-0-0-0-0-0-0---0---3---|--0-0-0-0----0----0-0-----0--|


  S S S S S S E  Q     S S S S    S S S S S S S S S S S S S S S S    S S S S S S S S S S S S S E.   
-------------------------------|----------------------------------|--------------------------------|
-------------------------------|----------------------------------|--------------------------------|
----------5---3--L\------------|----------------------------------|----------------------5---4-----|
--0-0-0-0---0----------3-5-5-3-|--0-0-0-0-0-0-0-0-0-0-0-0-0-0-0-0-|--0-0-0-0-0-0-0-0-0-0---0---3---|


  S S S S S S S S S S S S S S S S    S S S S S S S S S S S S S E.     W                 
----------------------------------|--------------------------------|-------------------|
----------------------------------|--------------------------------|-------------------|
----------------------------------|----------------------5---4-----|-------------------|
--0-0-0-0-0-0-0-0-0-0-0-0-0-0-0-0-|--0-0-0-0-0-0-0-0-0-0---0---3---|-------------------|


  W                   W                   W                   W                   W                 
-------------------|-------------------|-------------------|-------------------|-------------------|
-------------------|-------------------|-------------------|-------------------|-------------------|
-------------------|-------------------|-------------------|-------------------|-------------------|
-------------------|-------------------|-------------------|-------------------|-------------------|


  W                   W                   W                   W                   W                 
-------------------|-------------------|-------------------|-------------------|-------------------|
-------------------|-------------------|-------------------|-------------------|-------------------|
-------------------|-------------------|-------------------|-------------------|-------------------|
-------------------|-------------------|-------------------|-------------------|-------------------|


  W                   W                   W                   W                   W                 
-------------------|-------------------|-------------------|-------------------|-------------------|
-------------------|-------------------|-------------------|-------------------|-------------------|
-------------------|-------------------|-------------------|-------------------|-------------------|
-------------------|-------------------|-------------------|-------------------|-------------------|


  W                   W                   W                   W                   W                 
-------------------|-------------------|-------------------|-------------------|-------------------|
-------------------|-------------------|-------------------|-------------------|-------------------|
-------------------|-------------------|-------------------|-------------------|-------------------|
-------------------|-------------------|-------------------|-------------------|-------------------|


  W                   W                  
-------------------|-------------------||
-------------------|-------------------||
-------------------|-------------------||
-------------------|-------------------||




Duration Legend
---------------
W - whole
H - half
Q - quarter
E - 8th
S - 16th
T - 32nd
X - 64th
. - note dotted
|-n-|  - n-tuplets


Tablature Legend
----------------
L - tied note
x - dead note
g - grace note
(n) - ghost note
> - accentuded note
NH - natural harmonic
AH - artificial harmonic
TH - tapped harmonic
SH - semi harmonic
PH - pitch harmonic
h - hammer on
p - pull off
b - bend
br - bendRelease
pb - preBend
pbr - preBendRelease
brb - bendReleaseBend
\n/ - tremolo bar dip
\n - tremolo bar dive
-/n - tremolo bar Release up
/n\ - tremolo bar inverted dip
/n - tremolo bar return
-\n - tremolo bar Release down
S - shift slide
s - legato slide
/ -  slide into from below or out of upwards
\ -  slide into from above or out of downwards
~ - vibrato
W - wide vibrato
tr - trill
TP - tremolo picking
T - tapping
S - slap
P - pop
< - fade in
^ - brush up
v - brush down

            
            
Suggest correction
Creating personal tab
Creating personal tab
You can edit any tab online and save it as your Personal.

You can edit, replace or remove any tab part or add personal notes – all changes will be seen only by you.

Personal tabs can be accessed anytime from any device, even offline.
Learn more »
Give kudos to tab author, rate the tab!
1 2 3 4 5
comments
print report bad tab
guest
You may want to rate the tab now too:
select rating
Wanna post a correction for this tab? Suggest correction