Oops, an error
Loading. Please wait.

Band On The Run tab

version 3
version 3

Whole song

Interactive

Video

by Wings
6,962 views 6 this week
3 commentsread comments
1 2 3 4 5
1 last vote to show rating
add to favorites
×
Save as Personal and add changes to this tab that will be seen only by you. Learn more ›
×
You can save this tab as Personal to edit and correct it or add notes. All changes will be seen only by you. Learn more »
launch autoscroll
font size
0
reset
how to read this tab
guitar tuner
backing track
0:00
0:00
edit
Autoscroll
slow
fast
+/-
esc
set tempo
stop
E|--10h12--10-------------2--------------------------------------------10\9--5--7--|
B|-------------10h12--10--2--10h12--10h12--10h12--10h12--10h12--10h12--------------|
G|------------------------2--------------------------------------------------------|
D|------------------------0--------------------------------------------------------|
A|---------------------------------------------------------------------------------|
E|---------------------------------------------------------------------------------|

E|--------------------------------------------|--|
B|--------------------------------------------|--|
G|--12h14--12h14--12h14--12h14--12h14--12h14--|--|
D|--------------------------------------------|--|
A|--------------------------------------------|--|
E|--------------------------------------------|--|

E|--10h12--10-------------2--------------------------------------------10\9--5--7--|
B|-------------10h12--10--2--10h12--10h12--10h12--10h12--10h12--10h12--------------|
G|------------------------2--------------------------------------------------------|
D|------------------------0--------------------------------------------------------|
A|---------------------------------------------------------------------------------|
E|---------------------------------------------------------------------------------|

E|--------------------------------------------|--|
B|--------------------------------------------|--|
G|--12h14--12h14--12h14--12h14--12h14--12h14--|--|
D|--------------------------------------------|--|
A|--------------------------------------------|--|
E|--------------------------------------------|--|

E|--15--14--12--12--10v--10--12--15v--15--14--12--12--10v--10--12--15v--14h15--14--|
B|---------------------------------------------------------------------------------|
G|---------------------------------------------------------------------------------|
D|---------------------------------------------------------------------------------|
A|---------------------------------------------------------------------------------|
E|---------------------------------------------------------------------------------|

E|--2--------------------------------------------0------------------------------|
B|--2--10h12--10h12--10h12--10h12--10h12--10h12--0------------------------------|
G|--2--------------------------------------------0------------------------------|
D|--0--------------------------------------------0--12h14--12h14--12h14--12h14--|
A|-----------------------------------------------2------------------------------|
E|-----------------------------------------------3------------------------------|

E|----------------|--|
B|----------------|--|
G|----------------|--|
D|--12h14--12h14--|--|
A|----------------|--|
E|----------------|--|

E|--2--------------------------------------------0------------------------------|
B|--2--10h12--10h12--10h12--10h12--10h12--10h12--0------------------------------|
G|--2--------------------------------------------0------------------------------|
D|--0--------------------------------------------0--12h14--12h14--12h14--12h14--|
A|-----------------------------------------------2------------------------------|
E|-----------------------------------------------3------------------------------|

E|----------------|--|
B|----------------|--|
G|----------------|--|
D|--12h14--12h14--|--|
A|----------------|--|
E|----------------|--|

E|--2--0--2--0--2--|-----------------------------------------------------------------|
B|--2--0--2--0--2--|-----5--5--5--4--4--4--2--2--2--------3--3--3--3--3--3-----------|
G|--2--0--2--0--2--|--------------------------------------------------------4--4--4--|
D|--0--0--0--0--0--|-----------------------------------0-----------------------------|
A|-----2-----2-----|--0-----------------------------3--------------------------------|
E|-----3-----3-----|-----------------------------------------------------------------|


E|--------------------------------------------------------------------------------------|
B|-----------------------------------3--3--3--3--3--3-----------------------------------|
G|--5--5--5--4--4--4--2--2--2--------------------------4--4--4--5--5--5--4--4--4--2--2--|
D|--------------------------------0-----------------------------------------------------|
A|-----------------------------3--------------------------------------------------------|
E|--------------------------------------------------------------------------------------|

E|--------------------------|--|
B|--------------------------|--|
G|--------------------------|--|
D|--5--5--5--4--4--4--2--2--|--|
A|--------------------------|--|
E|--------------------------|--|

E|--------------------------------------------------------------------------|
B|--------------------------------------------------------------------------|
G|--------------------------------------------------------------------------|
D|-----------------5--7--7--5-----------------5--7--7--5--------------------|
A|--------3--5--7-----5--5--3--------3--5--7-----5--5--3--------3--------3--|
E|--3--5-----------------------3--5-----------------------3--5-----3--5-----|

Then it goes into the whole chord part which I'm sorry I don't know.

            
            
Suggest correction
Creating personal tab
Creating personal tab
You can edit any tab online and save it as your Personal.

You can edit, replace or remove any tab part or add personal notes – all changes will be seen only by you.

Personal tabs can be accessed anytime from any device, even offline.
Learn more »
Give kudos to tab author, rate the tab!
1 2 3 4 5
comments
print report bad tab
3 comments total.
+1 reply
guitar2player 140 Aug 24, 2009 11:42 AM

if it was a full tab man i'd give you all five but it isn;t still great job though

0 reply
xthelonelywolfx 124 Aug 24, 2009 02:12 PM

yeah i don't know the chord parts so i messed up there

0 reply
dazzaw 10 2 days ago

Thanks

guest
You may want to rate the tab now too:
select rating
Wanna post a correction for this tab? Suggest correction