Oops, an error
Loading. Please wait.

With A Little Luck bass

by Wings
736 views 6 this week
1 commentread comment
1 2 3 4 5
2 more votes to show rating
add to favorites
×
Save as Personal and add changes to this tab that will be seen only by you. Learn more ›
×
You can save this tab as Personal to edit and correct it or add notes. All changes will be seen only by you. Learn more »
launch autoscroll
font size
0
reset
guitar tuner
edit
Autoscroll
slow
fast
+/-
esc
set tempo
stop
Author
-----------------------------------------------------------------------------
                         WITH A LITTLE LUCK - Wings
-----------------------------------------------------------------------------

Tabbed by: Matt Broback
E-mail: 37hambone@gmail.com

Tuning: E A D G

. = accent/grace note
t = 32nd note

INTRO        tt
|-----------------|----------------||--------------||----------------|
|-----------------|----------------||3:------------||----------------|
|2---2-------2-2--|----------------||4:2---2-------||5---4---2-------|
|-------------2---|--0-----0-----0-||--------------||------------0--0|

VERSE 1  0:16             .
|----------------|2-------4--------|----------------|2-------4-------|
|2-------2-------|---.-------------|2-------2-------|---.------------|
|------------0--0|--022--2-2-------|------------0--0|-0022--2-2--4---|
|----4--4--4-----|----------7\50--0|--0-4--4--40----|----------7\----|

||--------------||
||3:----------2-||
||4:4----4--4---||
||--------------||

CHORUS 1
|------------------|----------------|------------6---|x6--6--x6x6--6--x6x|
|4--------------2h4|----4-----------|4---------------|-------------------|
|--------4---4-----|--------4---4---|--------4-------|-------------------|
|----2-------------|2---------------|----2-----------|-------------------|
        
|------.---------|------7-----7---|---4------------|----------------|
|4-----4---------|0--7------7---7-|------4---4---4/|9---------------|
|--------4--4--4-|----------------|2-----------2---|----------------|
|----2-----------|----------------|----------------|--------------7\|

VERSE 2  1:11
|----------------|----2------44---|----------------|----2-2/44--4--4/6|--------|
|---2--2-----2---|-------.--------|----2-------2---|------------------|--------|
|----------------|0--0-002222--22-|----------------|0--0------22--2---|4-4-4-4-|
|0----0-04--4--4-|----------------|0--0--0-44-4--4-|------------------|--------|

CHORUS 2  1:32
|------------6---|----------------|----------------|6---6-x6x6-6--66|
|----4-----------|----4-4---------|----4-4---------|----------------|
|--------4-------|--------4---4---|--------4---4---|----------------|
|2---------------|2---------------|2---------------|----------------|

                                tttttttt
|----------------|------------7-76/74---|----4-4--4------|
|4---4-----------|------5/7----------74\|----------.-.-.-|
|--------4---4---|5--5------------------|2------2--2-2-2-|
|----------------|----------------------|----------------|

VERSE 3  2:02                 ..
|----------------|----2-----4-44---|----------------|--2-2-----4-4---|
|---22-------2---|-----------------|----2-------2---|----------------|
|----------------|0--0-00-22-2-----|----------------|0--0--0-22-2----|
|0-----0-4--4--4-|--------------7\5|0--0--0-44-4--4-|--------------7\|

|----------------|----------------|-----------------|----------------|
|------------.---|----2-------2---|--7-7------9-9--9|----2-------2---|
|4---4---4--44-4/|-------0--------|-----------------|----------------|
|----------------|0--0--0-4--4--4-|5--5--5~/77-7-77-|0--0--0-4--4--4-|

|--2-2-2~/4-4------|----------------|--2-2------4--44h64|----------------|
|------------------|--2-2-2-----2---|-----77\4----------|------22----2---|
|0--0------2-2-2h44|----------------|0--0-----22-2------|--------0----0--|
|------------------|0--0-0-04--4--40|-------------------|0---0----4-4--40|

|--22222/4--4-4---|----------------|--2-2-2/4-------|----------------|
|-----------------|--2-2-2-----2---|----------------|----------------|
|0--------22-2-2--|----------------|0--0-0---22-2---|----------------|
|---------------7\|0--0-0--4--4--4-|----------------|----7~~\0-------|

|----------------------|
|5:--------------------|
|4:--------------------|
|------00-0/7-7--------|

INTERLUDE  3:16
|----------------|----------------|----------------|
|------------2~~/|-----------2----|------------2~/7|
|5---4---2-------|5--54---2-2-----|5--54---2--2----|
|----------------|-------------000|----------------|

||--7--76---------------|--------------------||----------|
||5:--------------------|--------------------||:--------:|
||4:--------------------|2---2-------2-------||:--------:|
||----------------------|----------------0---||----------|

|----9-----------|9----------x9---|----------------|-----------------|
|----------------|----------------|----------------|3:-----------22-2|
|----------------|----------------|------------2---|4:--------2h4----|
|----------------|----------------|----------------|-----------------|

|----------------|---2-------4------9|----------------|--2---2----4--4-|
|2~~\---2----2---|-------------99h11-|----2-------2---|----------------|
|----------------|0----0012-2--------|----------------|0--0---02-2--2--|
|----0---4--4--40|-------------------|0--0--0-4--4--40|----------------|

                                                       .  .     .
|----------------|----------------|--------6---6--x|6--6--6-6--66-6-|
|--------------24|4---4----------x|4---4-----------|-----6-6-----6-6|
|4---4---4---4---|-------x4---4---|----------------|----------------|
|----------------|----------------|----------------|----------------|

     .       .                .  tt                                  tt
|6--66-6-6--66-6-|------------6----|----------------|-------------------|
|-----6-6-----6-6|4--44------------|0-------0-------|--------9-98-9-9-98|
|----------------|--------4------40|------0---------|2---2~/9-9------9--|
|----------------|-----------------|----------------|-------------------|

VERSE 4  4:56                .
|------------.---|------2----4--4-|----------------|---2--2-2/442-44-|
|2--2--------2---|-------0--------|2--2--------2---|-----------------|
|----------------|0--0----2-2--2--|-------0--------|0-0--0----------2|
|-00-----0-4---40|----------------|--0---0-4--4--40|-----------------|

                               tt  
|----------------|---2----------------|-----------------|----------|
|-22---22----2---|--------------------|---2--2-----2----|2:--------|
|----------------|0-0-----------------|-----------------|4:0--0-0--|
|0--0----4--4--4-|-----44--5/7-777-777|0-0--0-04--4--x40|----------|

OUTRO  5:28
|----------------|7---6------.----|----------------|
|-------------2~/|-----------5/---|----------------|
|5---4---2-------|--------------2-|2---------------|
|----------------|----------------|---------7~\0---|

            
            
Suggest correction
Creating personal tab
Creating personal tab
You can edit any tab online and save it as your Personal.

You can edit, replace or remove any tab part or add personal notes – all changes will be seen only by you.

Personal tabs can be accessed anytime from any device, even offline.
Learn more »
Give kudos to tab author, rate the tab!
1 2 3 4 5
comments
print report bad tab
1 comment total.
0 reply
LBassy 39 Sep 18, 2016 07:11 PM

I like a lot of your tabs, but this one isn't even close to being accurate. It's like you have tabbed a completely different song. Very disappointing to discover after entering it note-by-note into GuitarPro 6. :(

Would be helpful at this point if you could figure out which song this actually is a tab to. With a little luck, it'll be one I wanted to learn anyway.

guest
You may want to rate the tab now too:
select rating
Wanna post a correction for this tab? Suggest correction