Oops, an error
Loading. Please wait.

Nerves Normal Breath Normal tab

version 1
version 1

Whole song

3,061 views 6 this week
2 commentsread comments
1 2 3 4 5
x 4
add to favorites
×
Save as Personal and add changes to this tab that will be seen only by you. Learn more ›
×
You can save this tab as Personal to edit and correct it or add notes. All changes will be seen only by you. Learn more »
launch autoscroll
font size
0
reset
how to read this tab
guitar tuner
edit
Autoscroll
slow
fast
+/-
esc
set tempo
stop
Author
-------------------------------------------------------------------------------
                             Nerves Normal. Breath Normal - Wintersleep
-------------------------------------------------------------------------------

Tabbed by Brandon MacGregor
Tuning: DFDFAD  low to high

main:
0:03 - 2:04, 4:04 - 6:40:
D|------------------------------------------------------------------------------|
A|------------------------------------------------------------------------------|
F|----------0--------------0----------0-------------0---------------------------|
D|----0---0------0---0---0------0---0-----0---0---0-----------------------------|
F|--7---9------4---5---5------4---5-----2---4---0-------------------------------|
D|------------------------------------------------------------------------------|


2:04 - 2:52:
D|------------|--------------------------------|x15
A|------------|.------------------------------.|
F|------------|--------------------------------|
D|--7-7--0-0--|---7-7--0-0--5-5--0-7-7--0-0----|
F|--x-x--0-0--|.--x-x--0-0--x-x--x-x-x--0-0---.|
D|--7-7--0-0--|---7-7--0-0--5-5--0-7-7--0-0----|

2:52 - 3:15:
D|-----------|---------------------------------------------------------------------|x4
A|-----------|.--------------------------------------------------------------------|
F|-----------|---------------------------------------------------------------------|
D|--7-7--0-0-|--x-x-5-5-5-5-5-5-5-5-5-x-x-0--0--x-x--7-7-7-7-7-7-7-7-7-x-x-0--0----|
F|--x-x--0-0-|.-x-x-5-5-5-5-5-5-5-5-5-x-x-0--0--x-x--7-7-7-7-7-7-7-7-7-x-x-0--0----|
D|--7-7--0-0-|--x-x-5-5-5-5-5-5-5-5-5-x-x-0--0--x-x--7-7-7-7-7-7-7-7-7-x-x-0--0----|


3:15 - 3:39:
heavy palm-muting:
        mmmmmmmmmmmmmmmmm               mmmmmmmmmmmmmmmmmm
D|-------------------------------------------------------------------|x4
A|.-----------------------------------------------------------------.|
F|-------------------------------------------------------------------|
D|--x-x-5-5-5-5-5-5-5-5-5-x-x-0--0--x-x--7-7-7-7-7-7-7-7-7-x-x-0--0--|
F|--x-x-x-x-x-x-x-x-x-x-x-x-x-0--0--x-x--x-x-x-x-x-x-x-x-x-x-x-0--0-.|
D|--x-x-5-5-5-5-5-5-5-5-5-x-x-0--0--x-x--7-7-7-7-7-7-7-7-7-x-x-0--0--|


3:39 - 4:04:              with delay
D|-(+5)------------------------------------------------------|x4
A|.--------------------+5----------------------------+5-----.|
F|-------------------------+7--------------------------------|
D|-(+5)----+7--+7--+7-----------(+5)----+7--+7--+7-----------|
F|.---------------------------------------------------------.|
D|-----------------------------------------------------------|
one guitar keeps playing harmonics with delay while the other goes back to
main riff.
 end:
                                          x
D|-----------------------------------------------------------|
A|-----------------------------------------------------------|
F|-7-7-9-9-9--4-4--5-5-5-5-5--4-4--5-5-5--2-2--4-4--0-0-0----|
D|-x-x-0-0-0--x-x--x-x-x-x-x--x-x--x-x-x--x-x--x-x--0-0-0----|
F|-7-7-9-9-9--4-4--5-5-5-5-5--4-4--5-5-5--2-2--4-4--0-0-0----|
D|-----------------------------------------------------------|

D|-----------------------------------------------------------|
A|-----------------------------------------------------------|
F|-7-7-9-9-9--4-4--5-5-5-5-5--4----5-----2----4--------------|
D|-x-x-0-0-0--x-x--x-x-x-x-x--x----x-----x----x---0~---------|
F|-7-7-9-9-9--4-4--5-5-5-5-5--4----5-----2----4---0~---------|
D|------------------------------------------------0~---------|

| /  slide up
| \  slide down
| h  hammer-on
| p  pull-off
| ~  vibrato
| +  harmonic
| x  Mute note
===============================================================================

            
            
Suggest correction
Creating personal tab
Creating personal tab
You can edit any tab online and save it as your Personal.

You can edit, replace or remove any tab part or add personal notes – all changes will be seen only by you.

Personal tabs can be accessed anytime from any device, even offline.
Learn more »
comments
print report bad tab
2 comments total.
+2 reply
dajakemaster 10 Dec 18, 2009 11:25 AM

This sounds great. I look forward to using this in the future, and I am glad that someone is tabbing this kind of music.

0 reply
GreenSolace 62 Aug 30, 2015 09:42 AM

nice job bro!
-brad

guest
You may want to rate the tab now too:
select rating
Wanna post a correction for this tab? Suggest correction