Oops, an error
Loading. Please wait.

Beyond The Dark Sun bass

version 1
version 1

Whole song

Interactive

3,934 views 1 this week
no commentswrite comment
1 2 3 4 5
2 more votes to show rating
add to favorites
×
Save as Personal and add changes to this tab that will be seen only by you. Learn more ›
×
You can save this tab as Personal to edit and correct it or add notes. All changes will be seen only by you. Learn more »
launch autoscroll
font size
0
reset
guitar tuner
backing track
0:00
0:00
edit
Autoscroll
slow
fast
+/-
esc
set tempo
stop
Author
                        


Beyond The Dark Sun                                                                   Wintersun
Bass


                             S S S S E  E  E  E  E  E   
F||-------|-------|-------|----------------------------|
C||-------|-------|-------|----------7--5--4-----5--4--|
G||-------|-------|-------|--5-5-5-5----------5--------|
D||-------|-------|-------|----------------------------|


   E  S S S S S S S S S S E  E   
--------------------------------|
--------------------------------|
--10--7-7-7-7-7-7-7-7-7-7-9--7--|
--------------------------------|


  E   S  S  S  S  S  S  S  S  S  S  S  S  S  S  
-----------------------------------------------|
-----------------------------------------------|
--9--12-12-12-12-12-12-12-12-12-12-12-12-12-12-|
-----------------------------------------------|


   E   S  S  S  S  S  S  S  S  S  S  E  E     S S S S E  E  E  E  E  E   
-------------------------------------------|----------------------------|
-------------------------------------------|----------7--5--4-----5--4--|
--12--15-15-15-15-15-15-15-15-15-15-10--9--|--5-5-5-5----------5--------|
-------------------------------------------|----------------------------|


   E  S S S S S S S S S S E  E   
--------------------------------|
--------------------------------|
--10--7-7-7-7-7-7-7-7-7-7-9--7--|
--------------------------------|


  E   S  S  S  S  S  S  S  S  S  S  S  S  S  S  
-----------------------------------------------|
-----------------------------------------------|
--9--12-12-12-12-12-12-12-12-12-12-12-12-12-12-|
-----------------------------------------------|


   E   S  S  S  S  S  S  S  S  S  S  E  E     S S S S E  E  E  E  E  E   
-------------------------------------------|----------------------------|
-------------------------------------------|----------7--5--4-----5--4--|
--12--15-15-15-15-15-15-15-15-15-15-10--9--|--5-5-5-5----------5--------|
-------------------------------------------|----------------------------|


  H        H           H        H           H        H         
--------------------|--------------------|--------------------|
--------------------|--------------------|--------------------|
--7--------6--------|--7--------9--------|--7-----------------|
--------------------|--------------------|-----------6--------|


  H        H            E  S S S S S S S S S S E  E   
--------------------|--------------------------------|
--------------------|--------------------------------|
-----------7--------|--10--7-7-7-7-7-7-7-7-7-7-9--7--|
--7-----------------|--------------------------------|


  E   S  S  S  S  S  S  S  S  S  S  S  S  S  S  
-----------------------------------------------|
-----------------------------------------------|
--9--12-12-12-12-12-12-12-12-12-12-12-12-12-12-|
-----------------------------------------------|


   E   S  S  S  S  S  S  S  S  S  S  E  E     S S S S E  E  E  E  E  E   
-------------------------------------------|----------------------------|
-------------------------------------------|----------7--5--4-----5--4--|
--12--15-15-15-15-15-15-15-15-15-15-10--9--|--5-5-5-5----------5--------|
-------------------------------------------|----------------------------|


   E  S S S S S S S S S S E  E   
--------------------------------|
--------------------------------|
--10--7-7-7-7-7-7-7-7-7-7-9--7--|
--------------------------------|


  E   S  S  S  S  S  S  S  S  S  S  S  S  S  S  
-----------------------------------------------|
-----------------------------------------------|
--9--12-12-12-12-12-12-12-12-12-12-12-12-12-12-|
-----------------------------------------------|


   E   S  S  S  S  S  S  S  S  S  S  E  E     S S S S E  E  E  E  E  E   
-------------------------------------------|----------------------------|
-------------------------------------------|----------7--5--4-----5--4--|
--12--15-15-15-15-15-15-15-15-15-15-10--9--|--5-5-5-5----------5--------|
-------------------------------------------|----------------------------|


  E  E  H.              Q    Q    H        E  E     Q    Q    Q    Q     
---------------------|---------------------------|----------------------|
---------------------|---------------------------|----------------------|
--7-----3------------|--3----3----3--------3--3--|--0----0----0----0----|
---------------------|---------------------------|----------------------|


  H        Q    Q       E  E  E  E  E  E  E  E     E  E  E  E  Q    Q     
---------------------|--------------------------|------------------------|
---------------------|--------------------------|------------------------|
--0--------0----0----|--7--7--7--7--7--7--7--7--|--7--7--7--7--7----7----|
---------------------|--------------------------|------------------------|


  W                   W                   Q    S S S S Q    S S E   
-------------------|-------------------|---------------------------|
-------------------|-------------------|---------------------------|
-------------------|-------------------|--2----2-2-2-2-2----2-2-2--|
--3----------------|--L----------------|---------------------------|


  E  S S Q    S S S S Q       W                   H        S S E  S S E   
---------------------------|-------------------|-------------------------|
---------------------------|-------------------|-------------------------|
--L--2-2-2----2-2-2-2-3----|--5----------------|--L--------3-3-3--2-2-2--|
---------------------------|-------------------|-------------------------|


  Q    S S S S Q    S S S S    E  E  Q    Q    Q       W                 
----------------------------|-----------------------|-------------------|
----------------------------|-----------------------|-------------------|
--0----0-0-0-0-0----0-0-0-0-|--0--0--L----3----5----|--7----------------|
----------------------------|-----------------------|-------------------|


  E   E  E  E  Q     Q        E  S S S S S S S S S S E   E   
--------------------------|---------------------------------|
--------------------------|---------------------------------|
--9--10--9--7--9\---------|--10----------------------9--10--|
--------------------------|------8-8-8-8-8-8-8-8-8-8--------|


                     |--3-|                                          
  E  S S S S S S  E  S  S S  E   E     E  S S S S S E  S S S S S E   
------------------------------------|-------------------------------|
------------------------------------|-------------------------------|
--9--------------10--9-10-9---------|--7--7-7-7-7-7-5--5-5-5-5-5-2--|
-----7-7-7-7-7-7------------12--10--|-------------------------------|


  E  S S S S S S S S S S S S S S     E  S S S S S S S S S S E   E   
---------------------------------|---------------------------------|
---------------------------------|---------------------------------|
--5--5-5-5-5-5-5-5-5-5-5-5-5-5-5-|--10----------------------9--10--|
---------------------------------|------8-8-8-8-8-8-8-8-8-8--------|


                     |--3-|                                          
  E  S S S S S S  E  S  S S  E   E     E  S S S S S E  S S S S S E   
------------------------------------|-------------------------------|
------------------------------------|-------------------------------|
--9--------------10--9-10-9---------|--7--7-7-7-7-7-5--5-5-5-5-5-2--|
-----7-7-7-7-7-7------------12--10--|-------------------------------|


  E  S S S S S S S S S S S S S S     E  S S S S S S S S S S E  E   
---------------------------------|--------------------------------|
---------------------------------|--------------------------------|
--5--5-5-5-5-5-5-5-5-5-5-5-5-5-5-|--10--7-7-7-7-7-7-7-7-7-7-9--7--|
---------------------------------|--------------------------------|


  E   S  S  S  S  S  S  S  S  S  S  S  S  S  S  
-----------------------------------------------|
-----------------------------------------------|
--9--12-12-12-12-12-12-12-12-12-12-12-12-12-12-|
-----------------------------------------------|


   E   S  S  S  S  S  S  S  S  S  S  E  E     S S S S E  E  E  E  E  E   
-------------------------------------------|----------------------------|
-------------------------------------------|----------7--5--4-----5--4--|
--12--15-15-15-15-15-15-15-15-15-15-10--9--|--5-5-5-5----------5--------|
-------------------------------------------|----------------------------|


   E  S S S S S S S S S S E  E   
--------------------------------|
--------------------------------|
--10--7-7-7-7-7-7-7-7-7-7-9--7--|
--------------------------------|


  E   S  S  S  S  S  S  S  S  S  S  S  S  S  S  
-----------------------------------------------|
-----------------------------------------------|
--9--12-12-12-12-12-12-12-12-12-12-12-12-12-12-|
-----------------------------------------------|


   E   S  S  S  S  S  S  S  S  S  S  E  E     S S S S E  E  E  E  E  E   
-------------------------------------------|----------------------------|
-------------------------------------------|----------7--5--4-----5--4--|
--12--15-15-15-15-15-15-15-15-15-15-10--9--|--5-5-5-5----------5--------|
-------------------------------------------|----------------------------|


                                                       |--3-|          
   E  S S S S S S S S S S E   E     E  S S S S S S  E  S  S S  E   E   
---------------------------------|------------------------------------|
---------------------------------|------------------------------------|
--10----------------------9--10--|--9--------------10--9-10-9---------|
------8-8-8-8-8-8-8-8-8-8--------|-----7-7-7-7-7-7------------12--10--|


  E  S S S S S E  S S S S S E     W                Q.        W                 
-------------------------------|--------------------------|-------------------|
-------------------------------|--------------------------|-------------------|
--7--7-7-7-7-7-5--5-5-5-5-5-2--|--5----------------L------|-------------------|
-------------------------------|--------------------------|-------------------|


  E  E  E  E  E  E  E  E     E  E  E  E  E  E  E  E   
--------------------------|--------------------------|
--------------------------|--------------------------|
--7--7--7--7--7--7--7-----|--5--5--5--5--5--5--2-----|
--------------------------|--------------------------|


  E  E  E  E  E  E  E  E     E  E  E  E  Q    Q       E  E  E  E  E  E  E  E   
--------------------------|------------------------|--------------------------|
--------------------------|------------------------|--------------------------|
--5--5--5--5--5--5--5--5--|--5--5--5--5--2----5----|--7--7--7--7--7--7--7-----|
--------------------------|------------------------|--------------------------|


  E  E  E  E  E  E  E  E     E  E  E  E  E  E  E  E     E  E  E  E  Q    Q     
--------------------------|--------------------------|------------------------|
--------------------------|--------------------------|------------------------|
--5--5--5--5--2--2--2--2--|--5--5--5--5--5--5--5--5--|--5--5--5--5--3----5----|
--------------------------|--------------------------|------------------------|


  E  E  E  E  E  E  E  E     E  E  E  E  E  E  E  E   
--------------------------|--------------------------|
--------------------------|--------------------------|
--7--7--7--7--7--7--7-----|--5--5--5--5--5--5--2-----|
--------------------------|--------------------------|


  E  E  E  E  E  E  E  E     E  E  E  E  Q    Q       E  E  E  E  E  E  E  E   
--------------------------|------------------------|--------------------------|
--------------------------|------------------------|--------------------------|
--5--5--5--5--5--5--5--5--|--5--5--5--5--2----5----|--7--7--7--7--7--7--7-----|
--------------------------|------------------------|--------------------------|


  |--3--|  |--3--|  |--3--|  |--3--|                       
  E  E  E  E  E  E  E  E  E  E  E  E     W                 
--------------------------------------|-------------------|
--------------------------------------|-------------------|
--5--5--5--5--5--5--2--2--2--2--2--2--|--5----------------|
--------------------------------------|-------------------|


                        |--3-|  |--3--|  |--3-|  |--3--|   
  H        Q    Q       Q    E  E  E  E  Q    E  E  E  E   
---------------------|------------------------------------|
---------------------|------------------------------------|
--L--------3----5----|--3----3--3--3--3--3----3--3--3--3--|
---------------------|------------------------------------|


  |--3-|  |--3--|  |--3-|  |--3--|          |--3--|  |--3--|  |--3--|   
  Q    E  E  E  E  Q    E  E  E  E     Q    E  E  E  E  E  E  E  E  E   
------------------------------------|----------------------------------|
------------------------------------|----------------------------------|
--0----0--0--0--0--0----0--0--0--0--|--7----7--7--7--7--7--7--7--7--7--|
------------------------------------|----------------------------------|


  |--3--|  |--3--|  |--3--|  |--3--|     |--3-|  |--3--|  |--3-|  |--3--|   
  E  E  E  E  E  E  E  E  E  E  E  E     Q    E  E  E  E  Q    E  E  E  E   
--------------------------------------|------------------------------------|
--------------------------------------|------------------------------------|
--7--7--7--7--7--7--7--7--7--7--7--7--|------------------------------------|
--------------------------------------|--3----3--3--3--3--3----3--3--3--3--|


  |--3-|  |--3--|  |--3-|  |--3--|          |--3--|  |--3--|  |--3--|   
  Q    E  E  E  E  Q    E  E  E  E     Q    E  E  E  E  E  E  E  E  E   
------------------------------------|----------------------------------|
------------------------------------|----------------------------------|
--2----2--2--2--2--2----2--2--2--2--|--5----5--5--5--5--5--5--5--5--5--|
------------------------------------|----------------------------------|


  |--3--|  |--3--|  |--3--|  |--3--|     |--3-|  |--3--|  |--3-|  |--3--|   
  E  E  E  E  E  E  E  E  E  E  E  E     Q    E  E  E  E  Q    E  E  E  E   
--------------------------------------|------------------------------------|
--------------------------------------|------------------------------------|
--5--5--5--5--5--5--5--5--5--5--5--5--|------------------------------------|
--------------------------------------|--5----5--5--5--5--5----5--5--5--5--|


  |--3--|  |--3--|                    |--3--|  |--3--|  |--3--|   
  E  E  E  E  E  E  Q    Q       Q    E  E  E  E  E  E  E  E  E   
------------------------------|----------------------------------|
------------------------------|----------------------------------|
-------------------------5----|--7----7--7--7--7--7--7--7--7--7--|
--8--7--5--8--7--5--3---------|----------------------------------|


                           |--3--|  |--3--|  |--3--|   
  W                   Q    E  E  E  E  E  E  E  E  E   
-------------------|----------------------------------|
-------------------|----------------------------------|
--7----------------|--7----7--7--7--7--7--7--7--7--7--|
-------------------|----------------------------------|


       |--3--|  |--3--|  |--3--|          |--3--|  |--3--|  |--3--|   
  Q    E  E  E  E  E  E  E  E  E     Q    E  E  E  E  E  E  E  E  E   
----------------------------------|----------------------------------|
----------------------------------|----------------------------------|
--5----5--5--5--5--5--5--5--5--5--|--2----2--2--2--2--2--2--2--2--2--|
----------------------------------|----------------------------------|


       |--3--|  |--3--|  |--3--|          |--3--|  |--3--|  |--3--|   
  Q    E  E  E  E  E  E  E  E  E     Q    E  E  E  E  E  E  E  E  E   
----------------------------------|----------------------------------|
----------------------------------|----------------------------------|
--5----5--5--5--5--5--5--5--5--5--|--7----7--7--7--7--7--7--7--7--7--|
----------------------------------|----------------------------------|


       |--3--|  |--3--|  |--3--|                                            
  Q    E  E  E  E  E  E  E  E  E     W                   H        H         
----------------------------------|-------------------|--------------------|
----------------------------------|-------------------|--------------------|
--5----5--5--5--5--5--5--5--5--5--|--2----------------|--3--------5--------|
----------------------------------|-------------------|--------------------|


       |--3--|  |--3--|               |--3--|  |--3--|        
  Q    E  E  E  E  E  E  Q       Q    E  E  E  E  E  E  Q     
------------------------------|------------------------------|
------------------------------|------------------------------|
--7----7--7--7--7--7--7--7----|--2----2--2--2--2--2--2--2----|
------------------------------|------------------------------|


       |--3--|  |--3--|                            
  Q    E  E  E  E  E  E  Q       W                 
------------------------------|-------------------|
------------------------------|-------------------|
--5----5--5--5--5--5--5--5----|--3----------------|
------------------------------|-------------------|


       |--3--|  |--3--|  |--3--|          |--3--|  |--3--|  |--3--|   
  Q    E  E  E  E  E  E  E  E  E     Q    E  E  E  E  E  E  E  E  E   
----------------------------------|----------------------------------|
----------------------------------|----------------------------------|
--0----0--0--0--0--0--0--0--0--0--|--2----2--2--2--2--2--2--2--2--2--|
----------------------------------|----------------------------------|


       |--3--|  |--3--|  |--3--|                       
  Q    E  E  E  E  E  E  E  E  E     W                 
----------------------------------|-------------------|
----------------------------------|-------------------|
--7----7--7--7--7--7--7--7--7--7--|--7----------------|
----------------------------------|-------------------|


       |--3--|  |--3--|               |--3--|  |--3--|        
  Q    E  E  E  E  E  E  Q       Q    E  E  E  E  E  E  Q     
------------------------------|------------------------------|
------------------------------|------------------------------|
--7----7--7--7--7--7--7--7----|--5----5--5--5--5--5--5--5----|
------------------------------|------------------------------|


       |--3--|  |--3--|               |--3--|       |--3--|   
  Q    E  E  E  E  E  E  Q       Q    E  E  E  Q    E  E  E   
------------------------------|------------------------------|
------------------------------|------------------------------|
--2----2--2--2--2--2--2--2----|--5----5--5--5--5----5--5--5--|
------------------------------|------------------------------|


       |--3--|  |--3--|               |--3--|  |--3--|        
  Q    E  E  E  E  E  E  Q       Q    E  E  E  E  E  E  Q     
------------------------------|------------------------------|
------------------------------|------------------------------|
--7----7--7--7--7--7--7--7----|--5----5--5--5--5--5--5--5----|
------------------------------|------------------------------|


                                                |--3--|  |--3--|        
  W                   H        H           Q    E  E  E  E  E  E  Q     
-------------------|--------------------|------------------------------|
-------------------|--------------------|------------------------------|
--2----------------|--3--------5--------|--7----7--7--7--7--7--7--7----|
-------------------|--------------------|------------------------------|


       |--3--|  |--3--|               |--3--|       |--3--|   
  Q    E  E  E  E  E  E  Q       Q    E  E  E  Q    E  E  E   
------------------------------|------------------------------|
------------------------------|------------------------------|
--2----2--2--2--2--2--2--2----|--5----5--5--5--5----5--5--5--|
------------------------------|------------------------------|


                           |--3--|  |--3--|  |--3--|   
  W                   Q    E  E  E  E  E  E  E  E  E   
-------------------|----------------------------------|
-------------------|----------------------------------|
--3----------------|--0----0--0--0--0--0--0--0--0--0--|
-------------------|----------------------------------|


       |--3--|  |--3--|  |--3--|          |--3--|  |--3--|  |--3--|   
  Q    E  E  E  E  E  E  E  E  E     Q    E  E  E  E  E  E  E  E  E   
----------------------------------|----------------------------------|
----------------------------------|----------------------------------|
--2----2--2--2--2--2--2--2--2--2--|--3----3--3--3--3--3--3--3--3--3--|
----------------------------------|----------------------------------|


       |--3--|  |--3--|  |--3--|          |--3--|  |--3--|  |--3--|   
  Q    E  E  E  E  E  E  E  E  E     Q    E  E  E  E  E  E  E  E  E   
----------------------------------|----------------------------------|
----------------------------------|----------------------------------|
--5----5--5--5--5--5--5--5--5--5--|--0----0--0--0--0--0--0--0--0--0--|
----------------------------------|----------------------------------|


       |--3--|  |--3--|  |--3--|          |--3--|  |--3--|  |--3--|   
  Q    E  E  E  E  E  E  E  E  E     Q    E  E  E  E  E  E  E  E  E   
----------------------------------|----------------------------------|
----------------------------------|----------------------------------|
--2----2--2--2--2--2--2--2--2--2--|--7----7--7--7--7--7--7--7--7--7--|
----------------------------------|----------------------------------|


  W                                      
-------------------|-------------------||
-------------------|-------------------||
--7----------------|-------------------||
-------------------|-------------------||




Duration Legend
---------------
W - whole
H - half
Q - quarter
E - 8th
S - 16th
T - 32nd
X - 64th
. - note dotted
|-n-|  - n-tuplets


Tablature Legend
----------------
L - tied note
x - dead note
g - grace note
(n) - ghost note
> - accentuded note
NH - natural harmonic
AH - artificial harmonic
TH - tapped harmonic
SH - semi harmonic
PH - pitch harmonic
h - hammer on
p - pull off
b - bend
br - bendRelease
pb - preBend
pbr - preBendRelease
brb - bendReleaseBend
\n/ - tremolo bar dip
\n - tremolo bar dive
-/n - tremolo bar Release up
/n\ - tremolo bar inverted dip
/n - tremolo bar return
-\n - tremolo bar Release down
S - shift slide
s - legato slide
/ -  slide into from below or out of upwards
\ -  slide into from above or out of downwards
~ - vibrato
W - wide vibrato
tr - trill
TP - tremolo picking
T - tapping
S - slap
P - pop
< - fade in
^ - brush up
v - brush down

            
            
Suggest correction
Creating personal tab
Creating personal tab
You can edit any tab online and save it as your Personal.

You can edit, replace or remove any tab part or add personal notes – all changes will be seen only by you.

Personal tabs can be accessed anytime from any device, even offline.
Learn more »
Give kudos to tab author, rate the tab!
1 2 3 4 5
comments
print report bad tab
guest
You may want to rate the tab now too:
select rating
Wanna post a correction for this tab? Suggest correction