Oops, an error
Loading. Please wait.

Beyond The Dark Sun tab

version 4
version 4

Whole song

Interactive

12,060 views 3 this week
1 commentread comment
1 2 3 4 5
x 4
add to favorites
×
Save as Personal and add changes to this tab that will be seen only by you. Learn more ›
×
You can save this tab as Personal to edit and correct it or add notes. All changes will be seen only by you. Learn more »
launch autoscroll
font size
0
reset
how to read this tab
guitar tuner
backing track
0:00
0:00
edit
Autoscroll
slow
fast
+/-
esc
set tempo
stop
#----------------------------------PLEASE NOTE---------------------------------#
#This file is the author's own work and represents their interpretation of the #
#song. You may only use this file for private study, scholarship, or research. #
#------------------------------------------------------------------------------#

BEYOND THE DARK SUN
As recorded by Wintersun
(From the 2004 Album WINTERSUN)

Transcribed by Danny Heater (hauntedinflames)
	

Words and Music by Jari Maenpaa

G/E
x x 14 12 12 x
	
F#m/A
x x 7 11 10 x
	
Am/C
x x 10 14 13 0
	
C/E
x x 14 12 13 x

D/F#
x x x 11 10 10
	
Bm/D
x x 12 11 12 x
	
Em/B
x x 9 9 8 7
	
D
x x 12 11 10 10

D(type 2)
x x 12 11 10 14
	
Bm
x x 9 11 12 10
	
Em/BVIII
x x 9 9 8 12
	
B5
x x 9 11 12 x

C
x x 10 9 8 0
	
D(type 3)
x x 12 11 10 x
	
C(type 2)
x x 10 9 8 8
	
Am
x 0 7 9 10 8

Gtr I (D G C F A D) - 'Untitled'
Gtr II (D G C F A D) - 'Untitled'
Gtr III (D G C F A D) - 'Untitled'
Gtr IV (D G C F A D) - 'Untitled'
Gtr V (D G C F A D) - 'Untitled'
Gtr VI (D G C F A D) - 'Untitled'

 Intro
  Q=184
  N.C.
 4/4
  Gtr II
   E S S S S S S S S S S  E E    E S S S S S S S S S S S S S S
|-----------------------------|--------------------------------|
|-----------------------------|--------------------------------|
|-12---------------------11-9-|-11-----------------------------|
|-----------------------------|----7-7-7-7-7-7-7-7-7-7-7-7-7-7-|
|----7-7-7-7-7-7-7-7-7-7------|--------------------------------|
|-----------------------------|--------------------------------|


                                           D/F#              Bm/D
  Gtr II
   E  S  S  S  S  S  S  S  S  S  S  E  E    S  S  S  S  E  E  E  E  E  E
|----------------------------------------|-------------------------------|
|----------------------------------------|-------------------------------|
|-14-------------------------------12-11-|-------------14-12-11----12-11-|
|----10-10-10-10-10-10-10-10-10-10-------|-12-12-12-12-------------------|
|----------------------------------------|----------------------14-------|
|----------------------------------------|-------------------------------|
|
| Gtr I
|  W                                        S  S  S  S  E  E  E  E  E  E
|----------------------------------------|-------------------------------|
|----------------------------------------|-------------------------------|
|----------------------------------------|-------------------------------|
|----------------------------------------|--------------7--5--4-----5--4-|
|----------------------------------------|--5--5--5--5-----------5-------|
|----------------------------------------|-------------------------------|
|
| Gtr III
|  W                                        H                 H
|----------------------------------------|-10----------------------------|
|----------------------------------------|-10----------------12----------|
|----------------------------------------|-11----------------11----------|
|----------------------------------------|-------------------12----------|
|----------------------------------------|-------------------------------|
|----------------------------------------|-------------------------------|


    G/E                           F#m/A          Am/C
     E S S S S S S S S S S  E E    E S S S S S S  S S S S S S S S
||------------------------------|---------------------------------|
||o-----------------------------|---------------------------------|
||--12---------------------11-9-|-11------------------------------|
||------------------------------|----7-7-7-7-7-7--7-7-7-7-7-7-7-7-|
||o----7-7-7-7-7-7-7-7-7-7------|---------------------------------|
||------------------------------|---------------------------------|
|
|    E S S S S S S S S S S  E E    E S S S S S S  S S S S S S S S
||------------------------------|---------------------------------|
||o-----------------------------|---------------------------------|
||--12---------------------11-9-|-11------------------------------|
||------------------------------|----7-7-7-7-7-7--7-7-7-7-7-7-7-7-|
||o----7-7-7-7-7-7-7-7-7-7------|---------------------------------|
||------------------------------|---------------------------------|
|
|    W                             H              H
||------------------------------|---------------------------------|
||o-12--------------------------|-10-------------13---------------|
||--12--------------------------|-11-------------14---------------|
||--14--------------------------|--7-------------10---------------|
||o-----------------------------|---------------------------------|
||------------------------------|---------------------------------|


  C/E                                      D/F#              Bm/D
   E  S  S  S  S  S  S  S  S  S  S  E  E    S  S  S  S  E  E  E  E  E  E
|----------------------------------------|--------------------------------||
|----------------------------------------|-------------------------------o||
|-14-------------------------------12-11-|-------------14-12-11----12-11--||
|----10-10-10-10-10-10-10-10-10-10-------|-12-12-12-12--------------------||
|----------------------------------------|----------------------14-------o||
|----------------------------------------|--------------------------------||
|
|  E  S  S  S  S  S  S  S  S  S  S  E  E    S  S  S  S  E  E  E  E  E  E
|----------------------------------------|--------------------------------||
|----------------------------------------|-------------------------------o||
|-14-------------------------------------|--------------------------------||
|----10-10-10-10-10-10-10-10-10-10--5--4-|--------------7--5--4-----5--4--||
|----------------------------------------|--5--5--5--5-----------5-------o||
|----------------------------------------|--------------------------------||
|
|  W                                        H                 H
|----------------------------------------|-10-----------------------------||
|-13-------------------------------------|-10----------------12----------o||
|-12-------------------------------------|-11----------------11-----------||
|-14-------------------------------------|-------------------12-----------||
|----------------------------------------|-------------------------------o||
|----------------------------------------|--------------------------------||


  E5                      D#5
  Gtrs II, III, IV
   S  S  S  S  S  S  S  S  S  S  S  S  S  S  S  S
|-------------------12h15s17p14----------------14-|
|----------------12-------------16----------16----|
|-------------12-------------------17-14h17-------|
|----------14-------------------------------------|
|-------14----------------------------------------|
|-12h15-------------------------------------------|
|
|  H                       H
|-------------------------------------------------|
|-------------------------------------------------|
|--9-----------------------8----------------------|
|--9-----------------------8----------------------|
|--7-----------------------6----------------------|
|-------------------------------------------------|


  E5                      F#5
   S  S  S  S  S  S  S  S  S  S  S  S  S  S  S  S
|-19p15----------------17-20p17----------------17-|
|-------17----------17----------19----------19----|
|----------16----16----------------20-17h20-------|
|-------------17----------------------------------|
|-------------------------------------------------|
|-------------------------------------------------|
|
|  H                       H
|-------------------------------------------------|
|-------------------------------------------------|
|--9----------------------11----------------------|
|--9----------------------11----------------------|
|--7-----------------------9----------------------|
|-------------------------------------------------|


  E5                      A5
   S  S  S  S  S  S  S  S  S  S  S  S  S  S  S  S
|-19p15----------------15-18p15----------------15-|
|-------17----------17----------17----------17----|
|----------16----16----------------18-15h18-------|
|-------------17----------------------------------|
|-------------------------------------------------|
|-------------------------------------------------|
|
|  H                       H
|-------------------------------------------------|
|-------------------------------------------------|
|--9----------------------------------------------|
|--9-----------------------7----------------------|
|--7-----------------------7----------------------|
|--------------------------5----------------------|


  B5                      E5
                           ~~
   S  S  S  S  S  S  S  S  H
|-19p14----------------15-------||
|-------16----------17----17----||
|----------16----16-------------||
|-------------16----------------||
|-------------------------------||
|-------------------------------||
|
|  H                       H
|-------------------------------||
|-------------------------------||
|--------------------------9----||
|--9-----------------------9----||
|--9-----------------------7----||
|--7----------------------------||


    G/E                           F#m/A          Am/C
    Gtr II
     E S S S S S S S S S S  E E    E S S S S S S  S S S S S S S S
||------------------------------|---------------------------------|
||o-----------------------------|---------------------------------|
||--12---------------------11-9-|-11------------------------------|
||------------------------------|----7-7-7-7-7-7--7-7-7-7-7-7-7-7-|
||o----7-7-7-7-7-7-7-7-7-7------|---------------------------------|
||------------------------------|---------------------------------|
|
|   Gtr I
|    E S S S S S S S S S S  E E    E S S S S S S  S S S S S S S S
||------------------------------|---------------------------------|
||o-----------------------------|---------------------------------|
||--12---------------------11-9-|-11------------------------------|
||------------------------------|----7-7-7-7-7-7--7-7-7-7-7-7-7-7-|
||o----7-7-7-7-7-7-7-7-7-7------|---------------------------------|
||------------------------------|---------------------------------|
|
|   Gtr III
|    W                             H              H
||------------------------------|---------------------------------|
||o-12--------------------------|-10-------------13---------------|
||--12--------------------------|-11-------------14---------------|
||--14--------------------------|--7-------------10---------------|
||o-----------------------------|---------------------------------|
||------------------------------|---------------------------------|


  C/E                                      D/F#              Bm/D
   E  S  S  S  S  S  S  S  S  S  S  E  E    S  S  S  S  E  E  E  E  E  E
|----------------------------------------|--------------------------------||
|----------------------------------------|-------------------------------o||
|-14-------------------------------12-11-|-------------14-12-11----12-11--||
|----10-10-10-10-10-10-10-10-10-10-------|-12-12-12-12--------------------||
|----------------------------------------|----------------------14-------o||
|----------------------------------------|--------------------------------||
|
|  E  S  S  S  S  S  S  S  S  S  S  E  E    S  S  S  S  E  E  E  E  E  E
|----------------------------------------|--------------------------------||
|----------------------------------------|-------------------------------o||
|-14-------------------------------------|--------------------------------||
|----10-10-10-10-10-10-10-10-10-10--5--4-|--------------7--5--4-----5--4--||
|----------------------------------------|--5--5--5--5-----------5-------o||
|----------------------------------------|--------------------------------||
|
|  W                                        H                 H
|----------------------------------------|-10-----------------------------||
|-13-------------------------------------|-10----------------12----------o||
|-12-------------------------------------|-11----------------11-----------||
|-14-------------------------------------|-------------------12-----------||
|----------------------------------------|-------------------------------o||
|----------------------------------------|--------------------------------||


 Pre-Verse
  E5   C5
 5/4                         4/4
  E  E  E   E +H.              +H       Q   Q
|---------------------------|-------------------|
|---------------------------|-------------------|
|-9---------9-(9)-----------|--(9)-----12--11---|
|------12-------------------|-------------------|
|---------------------------|-------------------|
|---------------------------|-------------------|
|
|                                           PM|
| E  E  H.               Q      Q   H       E E
|---------------------------|-------------------|
|---------------------------|-------------------|
|-9-----5----------------5--|---5---5-----------|
|-9-----5----------------5--|---5---5-----------|
|-7-----3----------------3--|---3---3-------3-3-|
|---------------------------|-------------------|
|
| Q.        H        +Q.       +W
|----------12-------(12)----|-(12)--------------|
|----------12-------(12)----|-(12)--------------|
|----------12-------(12)----|-(12)--------------|
|----------10-------(10)----|-(10)--------------|
|---------------------------|-------------------|
|---------------------------|-------------------|


  A5
   W              +H      Q   Q
|--------------|------------------|
|--------------|---------12--13---|
|--9-----------|--(9)-------------|
|--------------|------------------|
|--------------|------------------|
|--------------|------------------|
|
|  Q  Q  Q  Q      H      Q   Q
|--------------|------------------|
|--------------|------------------|
|--2--2--2--2--|---2------2---2---|
|--2--2--2--2--|---2------2---2---|
|--0--0--0--0--|---0------0---0---|
|--------------|------------------|
|
|  W              +W
|-12-----------|-(12)-------------|
|-13-----------|-(13)-------------|
|-14-----------|-(14)-------------|
|-14-----------|-(14)-------------|
|--------------|------------------|
|--------------|------------------|


  E5                                     G5
   W                  +H        Q   Q     W           +H      H
|------------------|-------------------|-----------|---------------|
|-12---------------|-(12)----------10--|-12--------|-(12)----------|
|------------------|-----------12------|-----------|---------12----|
|------------------|-------------------|-----------|---------------|
|------------------|-------------------|-----------|---------------|
|------------------|-------------------|-----------|---------------|
|
|  E E E E E E E E     Q   E E  Q   Q     W           +H      H
|------------------|-------------------|-----------|---------------|
|------------------|-------------------|-----------|---------------|
|------------------|---9--------9---9--|-----------|---------------|
|--9-9-9-9-9-9-9-9-|---9---9-9--9---9--|--5--------|--(5)-----5----|
|--7-7-7-7-7-7-7-7-|---7---7-7--7---7--|--5--------|--(5)-----5----|
|------------------|-------------------|--3--------|--(3)-----3----|
|
|  W                  +W                  W           +W
|-12---------------|-(12)--------------|-10--------|-(10)----------|
|-12---------------|-(12)--------------|-12--------|-(12)----------|
|-12---------------|-(12)--------------|-12--------|-(12)----------|
|--9---------------|--(9)--------------|-12--------|-(12)----------|
|------------------|-------------------|-----------|---------------|
|------------------|-------------------|-----------|---------------|


  B5                                         C5
   W                      +H.                 Q
|----------------------|-------------------------|
|----------------------|-------------------------|
|-11-------------------|-(11)----------------12--|
|----------------------|-------------------------|
|----------------------|-------------------------|
|----------------------|-------------------------|
|
|     PM----|    PM|          PM|    PM----|
|  Q  S S S S Q  S S E    +E  S S Q  S S S S  Q
|----------------------|-------------------------|
|----------------------|-------------------------|
|--4----------4------4-|--(4)-----4-----------5--|
|--4----------4------4-|--(4)-----4-----------5--|
|--2--2-2-2-2-2--2-2-2-|--(2)-2-2-2--2-2-2-2--3--|
|----------------------|-------------------------|
|
|  W                      +H.                 Q
|-14-------------------|-(14)----------------15--|
|-15-------------------|-(15)--------------------|
|-16-------------------|-(16)----------------17--|
|-16-------------------|-(16)----------------17--|
|----------------------|-------------------------|
|----------------------|-------------------------|


  D5                  N.C.
   W           +H      Q      Q
|-----------|-------------------------|
|-10--------|-(10)--------------------|
|-----------|---------12-----11-------|
|-----------|-------------------------|
|-----------|-------------------------|
|-----------|-------------------------|
|
|                      PM-----------|
|  W           +H      E S S  S S S S
|-----------|-------------------------|
|-----------|-------------------------|
|--7--------|--(7)--------------------|
|--7--------|--(7)--------------------|
|--5--------|--(5)-----3-3-3--2-2-2-2-|
|-----------|-------------------------|
|
|  W           +W
|-17--------|-(17)--------------------|
|-19--------|-(19)--------------------|
|-19--------|-(19)--------------------|
|-19--------|-(19)--------------------|
|-----------|-------------------------|
|-----------|-------------------------|


  A5                                 C5  D5    E5
   W                        +H        Q   Q     W           +W
|------------------------|-------------------|-----------|---------------||
|------------------------|-------------------|-----------|---------------||
|--9---------------------|--(9)------12--11--|--9--------|--(9)----------||
|------------------------|-------------------|-----------|---------------||
|------------------------|-------------------|-----------|---------------||
|------------------------|-------------------|-----------|---------------||
|
|                                                                  Gtr V
|     PM----|    PM----|                                           TP
|  Q  S S S S Q  S S S S     E  Q.    Q   Q     W            H     H
|------------------------|-------------------|-----------|---------------||
|------------------------|-------------------|-----------|---------------||
|--2----------2----------|---2--2-----5---7--|--9--------|---9-----------||
|--2----------2----------|---2--2-----5---7--|--9--------|---9-----x\----||
|--0--0-0-0-0-0--0-0-0-0-|---0--0-----3---5--|--7--------|---7-----x\----||
|------------------------|-------------------|-----------|---------x\----||
|
|  W                        +W                  W           +W
|-12---------------------|-(12)--------------|-12--------|-(12)----------||
|-13---------------------|-(13)--------------|-12--------|-(12)----------||
|-14---------------------|-(14)--------------|-12--------|-(12)----------||
|-14---------------------|-(14)--------------|--9--------|--(9)----------||
|------------------------|-------------------|-----------|---------------||
|------------------------|-------------------|-----------|---------------||


   Verse
    C5
     E  S  S  S  S  S  S  S  S  S  S  E     E
||-----------------------------------------------|
||o----------------------------------------------|
||--12-------------------------------11-----9----|
||-----10-10-10-10-10-10-10-10-10-10-------------|
||o----------------------------------------------|
||-----------------------------------------------|
|
|   Gtr I
|    E  S  S  S  S  S  S  S  S  S  S  E     E
||-----------------------------------------------|
||o----------------------------------------------|
||-----------------------------------------------|
||-----------------------------------------------|
||o-10--------------------------------9----10----|
||------8--8--8--8--8--8--8--8--8--8-------------|
|
|   Gtr VI
|    E  S  S  S  S  S  S  S  S  S  S  S  S  S  S
||-----------------------------12-12-14-14-15-15-|
||o-20-------------------13-13-------------------|
||-----------------12-12-------------------------|
||--17-------14-14-------------------------------|
||o----15-15-------------------------------------|
||-----------------------------------------------|


  B5                   N.C.
                           |--3--|
   E  S  S  S  S  S  S  E  S  S  S E  E
|---------------------------------------|
|---------------------------------------|
|-11-------------------12-11h12p11-9----|
|-----9--9--9--9--9--9---------------12-|
|---------------------------------------|
|---------------------------------------|
|
|                          |--3--|
|  E  S  S  S  S  S  S  E  S  S  S E  E
|---------------------------------------|
|---------------------------------------|
|---------------------------------------|
|---------------------------------------|
|--9-------------------10--9h10p=9-7----|
|-----7--7--7--7--7--7---------------10-|
|
|                          |--3--|
|  E  S  S  S  S  S  S  E  S  S  S E  E
|-14------------------------------------|
|---------------------------------------|
|-11-------------11-11-12-11-12-11-9----|
|----------12-12---------------------12-|
|----14-14------------------------------|
|---------------------------------------|


                                  1.
  E5          D5          B5      D5                      B5
   ~~~~~~~~~~~~~~~                 ~~~
   Q.          Q.          E  E    H.                      E  E
|-------------------------------|--------------------------------||
|-------------------------10----|-------------------------------o||
|-12----------11-------------12-|-11-----------------------9-11--||
|-------------------------------|--------------------------------||
|-------------------------------|-------------------------------o||
|-------------------------------|--------------------------------||
|
|     PM----|     PM----|             PM----------------|
|  E  S S S S  E  S S S S  Q       E  S S S S S S S S S S  E  E
|-------------------------------|--------------------------------||
|-------------------------------|-------------------------------o||
|--9-----------7----------------|--7-----------------------------||
|--9-----------7-----------9----|--7-----------------------9--9--||
|--7--7-7-7-7--5--5-5-5-5--9----|--5--5-5-5-5-5-5-5-5-5-5--9--9-o||
|--------------------------7----|--------------------------7--7--||
|
|  Q.          Q.          Q       H.                      E  E
|-15----------14----------10----|-14----------------------14-14--||
|-17----------15----------12----|-15----------------------15-15-o||
|-------------------------------|-------------------------16-16--||
|-------------------------------|--------------------------------||
|-------------------------------|-------------------------------o||
|-------------------------------|--------------------------------||


  2.
  D5                      B5
   ~~~
   H.                      E  E
|--------------------------------||
|----------------------------10--||
|-11----------------------12-----||
|--------------------------------||
|--------------------------------||
|--------------------------------||
|
|     PM----------------|
|  E  S S S S S S S S S S  E  E
|--------------------------------||
|--------------------------------||
|--7-----------------------------||
|--7-----------------------9--9--||
|--5--5-5-5-5-5-5-5-5-5-5--9--9--||
|--------------------------7--7--||
|
|  H.                      E  E
|-14----------------------14-14--||
|-15----------------------15-15--||
|-------------------------16-16--||
|--------------------------------||
|--------------------------------||
|--------------------------------||


 Altered Main Riff
  G/E                            F#m/A          Am/C
  Gtr III
   W                              H             H
   |                              |             |
   /                              /             /

  Gtr II
   E S S S S S S S S S S  E  E    E S S S S S S S S S S S S S S
|------------------------------|--------------------------------|
|-12---------------------------|--------------------------------|
|------------------------14-12-|-14-----------------------------|
|------------------------------|----7-7-7-7-7-7-7-7-7-7-7-7-7-7-|
|----7-7-7-7-7-7-7-7-7-7-------|--------------------------------|
|------------------------------|--------------------------------|
|
|  E S S S S S S S S S S  E  E    E S S S S S S S S S S S S S S
|------------------------------|--------------------------------|
|------------------------------|--------------------------------|
|-12---------------------11--9-|-11-----------------------------|
|------------------------------|----7-7-7-7-7-7-7-7-7-7-7-7-7-7-|
|----7-7-7-7-7-7-7-7-7-7-------|--------------------------------|
|------------------------------|--------------------------------|


  C/E                                      D/F#              Bm/D
   W                                        H                 H
   |                                        |                 |
   /                                        /                 /

   E  S  S  S  S  S  S  S  S  S  S  E  E    S  S  S  S  E  E  E  E  E  E
|----------------------------------------|-------------------------------|
|-13-------------------------------------|-------------------------------|
|----------------------------------12-11-|-------------14-12-11----12-14-|
|----10-10-10-10-10-10-10-10-10-10-------|-12-12-12-12-------------------|
|----------------------------------------|----------------------14-------|
|----------------------------------------|-------------------------------|
|
|  E  S  S  S  S  S  S  S  S  S  S  E  E    S  S  S  S  E  E  E  E  E  E
|----------------------------------------|-------------------------------|
|----------------------------------------|-------------------------------|
|-14-------------------------------------|-------------------------------|
|----10-10-10-10-10-10-10-10-10-10--5--4-|--------------7--5--4-----5--4-|
|----------------------------------------|--5--5--5--5-----------5-------|
|----------------------------------------|-------------------------------|


  G/E
   W
   |
   /

   E     S  S  S  S  S  S  S  S  S  S  E     E
|-------------------------------------------------|
|-12----------------------------------------------|
|-------------------------------------14----12----|
|-------------------------------------------------|
|--------7--7--7--7--7--7--7--7--7--7-------------|
|-------------------------------------------------|
|
|  E     S  S  S  S  S  S  S  S  S  S  E     E
|-------------------------------------------------|
|-------------------------------------------------|
|-12----------------------------------11-----9----|
|-------------------------------------------------|
|--------7--7--7--7--7--7--7--7--7--7-------------|
|-------------------------------------------------|
|
| Gtrs IV, VI
|  S  S  S  S  S  S  S  S  S  S  S  S  S  S  S  S
|-------------15----14s15h19p15----------------15-|
|----------15----15-------------15----------15----|
|-------16-------------------------16----16-------|
|----17-------------------------------17----------|
|-14----------------------------------------------|
|-------------------------------------------------|


  F#m/A                   Am/C
   H                       H
   |                       |
   /                       /

   E     S  S  S  S  S  S  S  S  S  S  S  S  S  S
|-------------------------------------------------|
|-------------------------------------------------|
|-14----------------------------------------------|
|--------7--7--7--7--7--7--7--7--7--7--7--7--7--7-|
|-------------------------------------------------|
|-------------------------------------------------|
|
|  E     S  S  S  S  S  S  S  S  S  S  S  S  S  S
|-------------------------------------------------|
|-------------------------------------------------|
|-11----------------------------------------------|
|--------7--7--7--7--7--7--7--7--7--7--7--7--7--7-|
|-------------------------------------------------|
|-------------------------------------------------|
|
|  S  S  S  S  S  S  S  S  S  S  S  S  S  S  S  S
|-20p17----------------------------17h20p17-------|
|-------17----------------------17----------17----|
|----------17----------17----17----------------17-|
|-------------19----19----19----------------------|
|----------------19-------------------------------|
|-------------------------------------------------|


  C/E
   W
   |
   /

   E     S  S  S  S  S  S  S  S  S  S  E     E
|-------------------------------------------------|
|-13----------------------------------------------|
|-------------------------------------12----11----|
|-------10-10-10-10-10-10-10-10-10-10-------------|
|-------------------------------------------------|
|-------------------------------------------------|
|
|  E     S  S  S  S  S  S  S  S  S  S  E     E
|-------------------------------------------------|
|-------------------------------------------------|
|-14----------------------------------------------|
|-------10-10-10-10-10-10-10-10-10-10--5-----4----|
|-------------------------------------------------|
|-------------------------------------------------|
|
|  S  S  S  S  S  S  S  S  S  S  S  S  S  S  S  S
|-17----------17----------20p17----------------17-|
|----17----17----17----17-------19----------19----|
|-------17----------17-------------19----19-------|
|-------------------------------------17----------|
|-------------------------------------------------|
|-------------------------------------------------|


  D/F#                    Bm/D
   H                       H
   |                       |
   /                       /

   S  S  S  S  E     E     E     E     E     E
|-------------------------------------------------||
|-------------------------------------------------||
|-------------14----12----11----------12----11----||
|-12-12-12-12-------------------------------------||
|-------------------------------14----------------||
|-------------------------------------------------||
|
|  S  S  S  S  E     E     E     E     E     E
|-------------------------------------------------||
|-------------------------------------------------||
|-------------------------------------------------||
|--------------7-----5-----4-----------5-----4----||
|--5--5--5--5--------------------5----------------||
|-------------------------------------------------||
|
|  S  S  S  S  S  S  S  S  S  S  S  S  S  S  S  S
|----------------------17h22p17----------------17-||
|-19----------19----19----------19----------19----||
|----19----19----19----------------19----19-------||
|-------19----------------------------19----------||
|-------------------------------------------------||
|-------------------------------------------------||


 Verse
  C5
   E  S  S  S  S  S  S  S  S  S  S  E     E
|----------------------------------------------|
|----------------------------------------------|
|-12-------------------------------11-----9----|
|----10-10-10-10-10-10-10-10-10-10-------------|
|----------------------------------------------|
|----------------------------------------------|
|
|  E  S  S  S  S  S  S  S  S  S  S  E     E
|----------------------------------------------|
|----------------------------------------------|
|----------------------------------------------|
|----------------------------------------------|
|-10--------------------------------9----10----|
|-----8--8--8--8--8--8--8--8--8--8-------------|
|
| Gtr VI
|  E  S  S  S  S  S  S  S  S  S  S  S  S  S  S
|----------------------------12-12-14-14-15-15-|
|-20-------------------13-13-------------------|
|----------------12-12-------------------------|
|-17-------14-14-------------------------------|
|----15-15-------------------------------------|
|----------------------------------------------|


  B5                   N.C.
                           |--3--|
   E  S  S  S  S  S  S  E  S  S  S E  E
|---------------------------------------|
|---------------------------------------|
|-11-------------------12-11h12p11-9----|
|-----9--9--9--9--9--9---------------12-|
|---------------------------------------|
|---------------------------------------|
|
|                          |--3--|
|  E  S  S  S  S  S  S  E  S  S  S E  E
|---------------------------------------|
|---------------------------------------|
|---------------------------------------|
|---------------------------------------|
|--9-------------------10--9h10p=9-7----|
|-----7--7--7--7--7--7---------------10-|
|
|                          |--3--|
|  E  S  S  S  S  S  S  E  S  S  S E  E
|-14------------------------------------|
|---------------------------------------|
|-11-------------11-11-12-11-12-11-9----|
|----------12-12---------------------12-|
|----14-14------------------------------|
|---------------------------------------|


  E5          D5          B5      D5
   Q.          Q.          E  E    W           +W
|-------------------------------|-----------|---------||
|-------------------------10----|-----------|---------||
|-12----------11-------------12-|-11--------|-(11)----||
|-------------------------------|-----------|---------||
|-------------------------------|-----------|---------||
|-------------------------------|-----------|---------||
|
|     PM----|     PM----|
|  E  S S S S  E  S S S S  Q       W           +W
|-------------------------------|-----------|---------||
|-------------------------------|-----------|---------||
|--9-----------7----------------|--7--------|--(7)----||
|--9-----------7-----------9----|--7--------|--(7)----||
|--7--7-7-7-7--5--5-5-5-5--9----|--5--------|--(5)----||
|--------------------------7----|-----------|---------||
|
|  Q.          Q.          Q       W           +W
|-15----------14----------10----|-14--------|-(14)----||
|-17----------15----------12----|-----------|---------||
|-------------------------------|-11--------|-(11)----||
|-------------------------------|-12--------|-(12)----||
|-------------------------------|-----------|---------||
|-------------------------------|-----------|---------||


 Interlude
  Q=210
  E5                    D5              B5
   Q    E  Q    E Q      Q     E  Q   E  Q
|---------------------|-----------------------|
|---------------------|-----------------------|
|-12---12-12---11-9---|-11----11-11---9-------|
|---------------------|-----------------12----|
|---------------------|-----------------------|
|---------------------|-----------------------|
|
|    PM|     PM|    PM      PM|     PM|     PM
|  E E  E  E E  E E E    E  E  E  E E E  E  E
|---------------------|-----------------------|
|---------------------|-----------------------|
|---------------------|-----------------------|
|--9-------9------9---|--7--------7-----------|
|--7-7--7--7-7--7-7-7-|--5--5--5--5-5-5--9----|
|---------------------|------------------7--7-|
|
| Gtr III
|  W                     H.              Q
|---------------------|-----------------------|
|--8------------------|--7--------------(7)---|
|--9------------------|--7--------------(7)---|
|--9------------------|--7---------------9----|
|---------------------|-----------------------|
|---------------------|-----------------------|


  D5                                 B5 D5
   Q    E  Q    E  Q      E   Q    E Q   Q
|----------------------|--------------------|
|----------------------|--------------------|
|-11---11-11---11-11---|-11--11---11-9--11--|
|----------------------|--------------------|
|----------------------|--------------------|
|----------------------|--------------------|
|
|    PM|     PM|     PM--|      PM|
|  E E  E  E E  E  E E    E   E E  E Q   Q
|----------------------|--------------------|
|----------------------|--------------------|
|----------------------|--------------------|
|--7-------7-------7---|------7----------7--|
|--5-5--5--5-5--5--5-5-|--5---5-5--5-9---5--|
|----------------------|-------------7------|
|
|  W                     +H          Q   Q
|----------------------|--------------------|
|--7-------------------|-(7)-------------7--|
|--7-------------------|-(7)---------7---7--|
|--7-------------------|-(7)---------9------|
|----------------------|--------------------|
|----------------------|--------------------|


  E5                    D5         B5
                                         |---3---|
   Q    E  Q    E Q      Q    E  E  Q    E  E    E
|---------------------|----------------------------|
|---------------------|----------------------------|
|-12---12-12---11-9---|-11---11-11-14---12h14p==12-|
|---------------------|----------------------------|
|---------------------|----------------------------|
|---------------------|----------------------------|
|
|    PM|     PM|    PM     PM---|     PM------|
|  E E  E  E E  E E E    E E  E  E  E E  E    E
|---------------------|----------------------------|
|---------------------|----------------------------|
|---------------------|----------------------------|
|--9-------9------9---|--7-------------------------|
|--7-7--7--7-7--7-7-7-|--5-5--5--5--9--------------|
|---------------------|-------------7-7--7----7----|
|
|  W                     H          H
|---------------------|----------------------------|
|--8------------------|--7-------------------------|
|--9------------------|--7----------7--------------|
|--9------------------|--7----------9--------------|
|---------------------|----------------------------|
|---------------------|----------------------------|


  D5                                 C5  D5
   Q    E  Q    E  Q      E   Q    E  Q   Q
|----------------------|-----------------------|
|----------------------|-----------------------|
|-11---11-11---11-11---|-11--11---11-12--14----|
|----------------------|-----------------------|
|----------------------|-----------------------|
|----------------------|-----------------------|
|
|    PM|     PM|     PM--|      PM|
|  E E  E  E E  E  E E    E   E E  E  Q   Q
|----------------------|-----------------------|
|----------------------|-----------------------|
|----------------------|-----------------------|
|--7-------7-------7---|------7-------5---7----|
|--5-5--5--5-5--5--5-5-|--5---5-5--5--3---5----|
|----------------------|-----------------------|
|
|  W                     +H           Q   Q
|----------------------|-----------------------|
|--7-------------------|-(7)--------------7----|
|--7-------------------|-(7)----------9---7----|
|--7-------------------|-(7)---------10--------|
|----------------------|-----------------------|
|----------------------|-----------------------|


  E5                    D5              B5
   Q    E  Q    E Q      Q     E  Q   E  Q
|---------------------|-----------------------|
|---------------------|-----------------------|
|-12---12-12---11-9---|-11----11-11---9-------|
|---------------------|-----------------12----|
|---------------------|-----------------------|
|---------------------|-----------------------|
|
|    PM|     PM|    PM      PM|     PM|     PM
|  E E  E  E E  E E E    E  E  E  E E E  E  E
|---------------------|-----------------------|
|---------------------|-----------------------|
|---------------------|-----------------------|
|--9-------9------9---|--7--------7-----------|
|--7-7--7--7-7--7-7-7-|--5--5--5--5-5-5--9----|
|---------------------|------------------7--7-|
|
|  W                     H.              Q
|---------------------|-----------------------|
|--8------------------|--7--------------(7)---|
|--9------------------|--7--------------(7)---|
|--9------------------|--7---------------9----|
|---------------------|-----------------------|
|---------------------|-----------------------|


  D5                                 B5 D5
   Q    E  Q    E  Q      E   Q    E Q   Q
|----------------------|--------------------|
|----------------------|--------------------|
|-11---11-11---11-11---|-11--11---11-9--11--|
|----------------------|--------------------|
|----------------------|--------------------|
|----------------------|--------------------|
|
|    PM|     PM|     PM--|      PM|
|  E E  E  E E  E  E E    E   E E  E Q   Q
|----------------------|--------------------|
|----------------------|--------------------|
|----------------------|--------------------|
|--7-------7-------7---|------7----------7--|
|--5-5--5--5-5--5--5-5-|--5---5-5--5-9---5--|
|----------------------|-------------7------|
|
|  W                     +H          Q   Q
|----------------------|--------------------|
|--7-------------------|-(7)-------------7--|
|--7-------------------|-(7)---------7---7--|
|--7-------------------|-(7)---------9------|
|----------------------|--------------------|
|----------------------|--------------------|


  E5                    N.C.
                                                     |--3--|
   Q    E  Q    E Q      Q        E     E     Q      E  E  E
|---------------------|--------------------------------------|
|---------------------|--------------------------------------|
|-12---12-12---11-9---|-11-------11----11----14-----12h14p12-|
|---------------------|--------------------------------------|
|---------------------|--------------------------------------|
|---------------------|--------------------------------------|
|
|    PM|     PM|    PM------------------------------------|
|                        |--3--|  |---3----|  |-3-|  |--3--|
|  E E  E  E E  E E E    E  E  E  E  E     E  E E E  E  E  E
|---------------------|--------------------------------------|
|---------------------|--------------------------------------|
|---------------------|--------------------------------------|
|--9-------9------9---|--------------------------------------|
|--7-7--7--7-7--7-7-7-|--------------------------------------|
|---------------------|-10-10-10-10-10----10--7-7-7--7--7--7-|
|
|  W                     W
|---------------------|--------------------------------------|
|--8------------------|--7-----------------------------------|
|--9------------------|--7-----------------------------------|
|--9------------------|--7-----------------------------------|
|---------------------|--------------------------------------|
|---------------------|--------------------------------------|


  D5                   N.C.
   ~~~~~~~~~~~~~~~~~
   W            +H      Q   Q
|------------|------------------|
|------------|------------------|
|-11---------|-(11)----12--14---|
|------------|------------------|
|------------|------------------|
|------------|------------------|
|
|  W            +H      Q   Q
|------------|------------------|
|------------|------------------|
|--7---------|--(7)-------------|
|--7---------|--(7)-------------|
|--5---------|--(5)-------------|
|------------|----------8--10---|
|
| +W            +H      Q   Q
|------------|------------------|
|-(7)--------|--(7)-----8--10---|
|-(7)--------|--(7)-----9--11---|
|-(7)--------|--(7)----10--12---|
|------------|------------------|
|------------|------------------|


  C5                    A5
   W                     W
|---------------------|--------------------|
|---------------------|--------------------|
|-12------------------|-14-----------------|
|---------------------|--------------------|
|---------------------|--------------------|
|---------------------|--------------------|
|
|     PM--|     PM--|       PM--|    PM--|
|     |-3-|     |-3-|       |-3-|    |-3-|
|  Q  E E E  Q  E E E    Q  E E E Q  E E E
|---------------------|--------------------|
|---------------------|--------------------|
|---------------------|--------------------|
|---------------------|--------------------|
|-10--------10--------|--7--------7--------|
|--8--8-8-8--8--8-8-8-|--5--5-5-5-5--5-5-5-|
|
|  W                     W
|---------------------|--------------------|
|--8------------------|-10-----------------|
|--9------------------|--9-----------------|
|-10------------------|--7-----------------|
|---------------------|--------------------|
|---------------------|--------------------|


  E5
   W                       +W
|-----------------------|-----------------------------|
|-12--------------------|-(12)------------------------|
|-----------------------|-----------------------------|
|-----------------------|-----------------------------|
|-----------------------|-----------------------------|
|-----------------------|-----------------------------|
|
|     PM-------------------------------------------|
|     |-3-| |-3-| |-3-|     |-3--| |-3-| |-3-| |-3-|
|  Q  E E E E E E E E E     E  E E E E E E E E E E E
|-----------------------|-----------------------------|
|-----------------------|-----------------------------|
|-----------------------|-----------------------------|
|--9--------------------|-----------------------------|
|--7--7-7-7-7-7-7-7-7-7-|---7--7-7-7-7-7-7-7-7-7-7-7--|
|-----------------------|-----------------------------|
|
|  W                       +W
|--7--------------------|--(7)------------------------|
|--8--------------------|--(8)------------------------|
|--9--------------------|--(9)------------------------|
|--9--------------------|--(9)------------------------|
|-----------------------|-----------------------------|
|-----------------------|-----------------------------|


  G5                   B5
   W                    +H.            E    E
|--------------------|--------------------------|
|-12-----------------|-(12)-----------12h==15---|
|--------------------|--------------------------|
|--------------------|--------------------------|
|--------------------|--------------------------|
|--------------------|--------------------------|
|
|     PM--|    PM--|         PM--|     PM-----|
|     |-3-|    |-3-|         |-3-|     |--3---|
|  Q  E E E Q  E E E     Q   E E E Q   E E    E
|--------------------|--------------------------|
|--------------------|--------------------------|
|--------------------|--------------------------|
|--------------------|--------------------------|
|--5--------5--------|---9---------9------------|
|--3--3-3-3-3--3-3-3-|---7---7-7-7-7---7-7----7-|
|
|  W                     W
|--7-----------------|--10----------------------|
|--8-----------------|--12----------------------|
|--7-----------------|--11----------------------|
|--5-----------------|---9----------------------|
|--------------------|--------------------------|
|--------------------|--------------------------|


  D5
   W                       +W
|-----------------------|----------------------------|
|-15--------------------|-(15)-----------------------|
|-----------------------|----------------------------|
|-----------------------|----------------------------|
|-----------------------|----------------------------|
|-----------------------|----------------------------|
|
|     PM-------------------------------------------|
|     |-3-| |-3-| |-3-|     |-3--| |-3-| |-3-| |-3-|
|  Q  E E E E E E E E E     E  E E E E E E E E E E E
|-----------------------|----------------------------|
|-----------------------|----------------------------|
|-----------------------|----------------------------|
|--7--------------------|----------------------------|
|--5--5-5-5-5-5-5-5-5-5-|---5--5-5-5-5-5-5-5-5-5-5-5-|
|-----------------------|----------------------------|
|
|  W                       +W
|-10--------------------|-(10)-----------------------|
|-10--------------------|-(10)-----------------------|
|-11--------------------|-(11)-----------------------|
|-12--------------------|-(12)-----------------------|
|-----------------------|----------------------------|
|-----------------------|----------------------------|


  A5                   N.C.           G5  D5
   W                    +H             Q   Q
|--------------------|------------------------|
|--------------------|------------------------|
|-14-----------------|-(14)-----------12--14--|
|--------------------|------------------------|
|--------------------|------------------------|
|--------------------|------------------------|
|
|     PM--|    PM-------------------|
|     |-3-|    |-3-|     |-3--| |-3-|
|  Q  E E E Q  E E E     E  E E E E E  Q   Q
|--------------------|------------------------|
|--------------------|------------------------|
|--------------------|------------------------|
|--------------------|---------------------7--|
|--7--------7--------|-----------------5---5--|
|--5--5-5-5-5--5-5-5-|---8--7-5-8-7-5--3------|
|
|  W                    +H             Q   Q
|--8-----------------|--(8)-----------10------|
|-10-----------------|-(10)-----------12--10--|
|--9-----------------|--(9)---------------11--|
|--7-----------------|--(7)-------------------|
|--------------------|------------------------|
|--------------------|------------------------|


  E5
   W                       +W
|-----------------------|---------|
|-12--------------------|-(12)----|
|-----------------------|---------|
|-----------------------|---------|
|-----------------------|---------|
|-----------------------|---------|
|
|     PM--------------|
|     |-3-| |-3-| |-3-|
|  Q  E E E E E E E E E     W
|-----------------------|---------|
|-----------------------|---------|
|-----------------------|---9-----|
|--9--------------------|---9-----|
|--7--7-7-7-7-7-7-7-7-7-|---7-----|
|-----------------------|---------|
|
|  W                       +W
|--7--------------------|--(7)----|
|--8--------------------|--(8)----|
|--9--------------------|--(9)----|
|--9--------------------|--(9)----|
|-----------------------|---------|
|-----------------------|---------|


 Outro
  E5                                    D5
   |--3--|  |--3--|  |--3--|  |--3--|    |--3--|  |--3--|  |--3--|  |--3--|
   E  E  E  E  E  E  E  E  E  E  E  E    E  E  E  E  E  E  E  E  E  E  E  E
|-------------------------------------|-------------------------------------|
|-12-12-12-12-12-12-------------------|-------------------------------------|
|-------------------14-14-14-12-12-12-|-14-14-14-14-14-14-12-12-12-11-11-11-|
|-------------------------------------|-------------------------------------|
|-------------------------------------|-------------------------------------|
|-------------------------------------|-------------------------------------|
|
|           PM---------------------|              PM---------------------|
|           |--3--|  |--3--|  |--3--|             |--3--|  |--3--|  |--3--|
|  Q        E  E  E  E  E  E  E  E  E    Q        E  E  E  E  E  E  E  E  E
|-------------------------------------|-------------------------------------|
|-------------------------------------|-------------------------------------|
|-------------------------------------|-------------------------------------|
|--9----------------------------------|--7----------------------------------|
|--7--------7--7--7--7--7--7--7--7--7-|--5--------5--5--5--5--5--5--5--5--5-|
|-------------------------------------|-------------------------------------|
|
|  W                                     W
|--7----------------------------------|-10----------------------------------|
|--8----------------------------------|-10----------------------------------|
|--9----------------------------------|-11----------------------------------|
|--9----------------------------------|-12----------------------------------|
|-------------------------------------|-------------------------------------|
|-------------------------------------|-------------------------------------|


  B5                                    D5
   |--3--|  |--3--|  |--3--|  |--3--|    |--3--|  |--3--|  |--3--|  |--3--|
   E  E  E  E  E  E  E  E  E  E  E  E    E  E  E  E  E  E  E  E  E  E  E  E
|-------------------------------------|----------------------------------------|
|-12-12-12-12-12-12-------------------|----------------------------------------|
|-------------------14-14-14-12-12-12-|-11-11-11-11-11-11-12-12-12-14-14-14----|
|-------------------------------------|----------------------------------------|
|-------------------------------------|----------------------------------------|
|-------------------------------------|----------------------------------------|
|
|           PM---------------------|              PM---------------------|
|           |--3--|  |--3--|  |--3--|             |--3--|  |--3--|  |--3--|
|  Q        E  E  E  E  E  E  E  E  E    Q        E  E  E  E  E  E  E  E  E
|-------------------------------------|----------------------------------------|
|-------------------------------------|----------------------------------------|
|-------------------------------------|----------------------------------------|
|-------------------------------------|--7-------------------------------------|
|--9----------------------------------|--5--------5--5--5--5--5--5--5--5--5----|
|--7--------7--7--7--7--7--7--7--7--7-|----------------------------------------|
|
|  W                                     W
|-10----------------------------------|-14-------------------------------------|
|-12----------------------------------|-10-------------------------------------|
|-11----------------------------------|-11-------------------------------------|
|--9----------------------------------|-12-------------------------------------|
|-------------------------------------|----------------------------------------|
|-------------------------------------|----------------------------------------|


  E5
   |--3--|  |--3--|  |--3--|  |--3--|
   E  E  E  E  E  E  E  E  E  E  E  E
|-------------------------------------|
|-------------------------------------|
|-12-12-12-12-12-12-11-11-11----------|
|----------------------------14-14-14-|
|-------------------------------------|
|-------------------------------------|
|
|           PM---------------------|
|           |--3--|  |--3--|  |--3--|
|  Q        E  E  E  E  E  E  E  E  E
|-------------------------------------|
|-------------------------------------|
|-------------------------------------|
|--9----------------------------------|
|--7--------7--7--7--7--7--7--7--7--7-|
|-------------------------------------|
|
|  W
|-12----------------------------------|
|--8----------------------------------|
|--9----------------------------------|
|--9----------------------------------|
|-------------------------------------|
|-------------------------------------|


  D5                                    B5               C5    D5
   |--3--|  |--3--|  |--3--|  |--3--|
   E  E  E  E  E  E  E  E  E  E  E  E    W                H     H
|-------------------------------------|----------------|-------------|
|-------------------------------------|----------------|-------------|
|-11-11-11-11-11-11-------------------|-11-------------|-12----14----|
|-------------------14-14-14-12-12-12-|----------------|-------------|
|-------------------------------------|----------------|-------------|
|-------------------------------------|----------------|-------------|
|
|           PM---------------------|             PM--|
|           |--3--|  |--3--|  |--3--|            |-3-|
|  Q        E  E  E  E  E  E  E  E  E    H.      E E E    H     H
|-------------------------------------|----------------|-------------|
|-------------------------------------|----------------|-------------|
|-------------------------------------|----------------|--------7----|
|--7----------------------------------|----------------|-10-----7----|
|--5--------5--5--5--5--5--5--5--5--5-|--9-------------|-10-----5----|
|-------------------------------------|--7-------7-7-7-|--8----------|
|
|  W                                     W                H     H
|-10----------------------------------|----------------|-------------|
|-10----------------------------------|-12-------------|--8----10----|
|-11----------------------------------|-11-------------|--9----11----|
|-12----------------------------------|--9-------------|-10----12----|
|-------------------------------------|----------------|-------------|
|-------------------------------------|----------------|-------------|


  E5                                    B5
   |--3--|  |--3--|  |--3--|  |--3--|    |--3--|  |--3--|  |--3--|  |--3--|
   E  E  E  E  E  E  E  E  E  E  E  E    E  E  E  E  E  E  E  E  E  E  E  E
|-------------------------------------|-------------------------------------|
|-12-12-12-12-12-12-------------------|-------------------------------------|
|-------------------14-14-14-12-12-12-|-14-14-14-14-14-14-12-12-12-11-11-11-|
|-------------------------------------|-------------------------------------|
|-------------------------------------|-------------------------------------|
|-------------------------------------|-------------------------------------|
|
|           PM------------|                       PM------------|
|           |--3--|  |--3--|                      |--3--|  |--3--|
|  Q        E  E  E  E  E  E  Q          Q        E  E  E  E  E  E  Q
|-------------------------------------|-------------------------------------|
|-------------------------------------|-------------------------------------|
|-------------------------------------|-------------------------------------|
|--9--------------------------9-------|-------------------------------------|
|--7--------7--7--7--7--7--7--7-------|--9--------------------------9-------|
|-------------------------------------|--7--------7--7--7--7--7--7--7-------|
|
|  W                                     W
|--7----------------------------------|-10----------------------------------|
|--8----------------------------------|-12----------------------------------|
|--9----------------------------------|-11----------------------------------|
|--9----------------------------------|--9----------------------------------|
|-------------------------------------|-------------------------------------|
|-------------------------------------|-------------------------------------|


  D5                                    C5
   |--3--|  |--3--|  |--3--|  |--3--|
   E  E  E  E  E  E  E  E  E  E  E  E    H     Q   Q
|-------------------------------------|---------------|
|-------------------------------------|---------------|
|-14-14-14-14-14-14-12-12-12-11-11-11-|-----------11--|
|-------------------------------------|-14----14------|
|-------------------------------------|---------------|
|-------------------------------------|---------------|
|
|           PM------------|
|           |--3--|  |--3--|
|  Q        E  E  E  E  E  E  Q          W
|-------------------------------------|---------------|
|-------------------------------------|---------------|
|-------------------------------------|--5------------|
|--7--------------------------7-------|--5------------|
|--5--------5--5--5--5--5--5--5-------|--3------------|
|-------------------------------------|---------------|
|
|  W                                     W
|-10----------------------------------|--8------------|
|-10----------------------------------|--8------------|
|-11----------------------------------|--9------------|
|-12----------------------------------|-10------------|
|-------------------------------------|---------------|
|-------------------------------------|---------------|


  A5
   |--3--|  |--3--|  |--3--|  |--3--|
   E  E  E  E  E  E  E  E  E  E  E  E
|-------------------------------------|
|-------------------------------------|
|-------------------11-11-11-12-12-12-|
|-14-14-14-14-14-14-------------------|
|-------------------------------------|
|-------------------------------------|
|
|           PM---------------------|
|           |--3--|  |--3--|  |--3--|
|  Q        E  E  E  E  E  E  E  E  E
|-------------------------------------|
|-------------------------------------|
|-------------------------------------|
|-------------------------------------|
|--7----------------------------------|
|--5--------5--5--5--5--5--5--5--5--5-|
|
|  W
|--8----------------------------------|
|-10----------------------------------|
|--9----------------------------------|
|--7----------------------------------|
|-------------------------------------|
|-------------------------------------|


  B5                                    E5
   |--3--|  |--3--|  |--3--|  |--3--|
   E  E  E  E  E  E  E  E  E  E  E  E    W                       +W
|-------------------------------------|-----------------------|---------|
|-------------------------------------|-----------------------|---------|
|-11-11-11-11-11-11-------------------|-----------------------|---------|
|-------------------14-14-14-12-12-12-|-14--------------------|-(14)----|
|-------------------------------------|-----------------------|---------|
|-------------------------------------|-----------------------|---------|
|
|           PM---------------------|        PM--------------|
|           |--3--|  |--3--|  |--3--|       |-3-| |-3-| |-3-|
|  Q        E  E  E  E  E  E  E  E  E    Q  E E E E E E E E E     W
|-------------------------------------|-----------------------|---------|
|-------------------------------------|-----------------------|---------|
|-------------------------------------|-----------------------|---9-----|
|-------------------------------------|--9--------------------|---9-----|
|--9----------------------------------|--7--7-7-7-7-7-7-7-7-7-|---7-----|
|--7--------7--7--7--7--7--7--7--7--7-|-----------------------|---------|
|
|  W                                     W                       +W
|-10----------------------------------|-12--------------------|-(12)----|
|-12----------------------------------|--8--------------------|--(8)----|
|-11----------------------------------|--9--------------------|--(9)----|
|--9----------------------------------|--9--------------------|--(9)----|
|-------------------------------------|-----------------------|---------|
|-------------------------------------|-----------------------|---------|


  Em/B                                  D
  Gtr III
   W                                     W
   |                                     |
   /                                     /

  Gtr II
   |--3--|  |--3--|  |--3--|  |--3--|    |--3--|  |--3--|  |--3--|  |--3--|
   E  E  E  E  E  E  E  E  E  E  E  E    E  E  E  E  E  E  E  E  E  E  E  E
|-------------------------------------|-------------------------------------|
|-12-12-12-12-12-12-------------------|-------------------------------------|
|-------------------14-14-14-12-12-12-|-14-14-14-14-14-14-12-12-12-11-11-11-|
|-------------------------------------|-------------------------------------|
|-------------------------------------|-------------------------------------|
|-------------------------------------|-------------------------------------|
|
|           PM------------|                       PM------------|
|           |--3--|  |--3--|                      |--3--|  |--3--|
|  Q        E  E  E  E  E  E  Q          Q        E  E  E  E  E  E  Q
|-------------------------------------|-------------------------------------|
|-------------------------------------|-------------------------------------|
|-------------------------------------|-------------------------------------|
|--9--------------------------9-------|--7--------------------------7-------|
|--7--------7--7--7--7--7--7--7-------|--5--------5--5--5--5--5--5--5-------|
|-------------------------------------|-------------------------------------|


  Bm                                    D(type 2)
   W                                     W
   |                                     |
   /                                     /

   |--3--|  |--3--|  |--3--|  |--3--|    |--3--|  |--3--|  |--3--|  |--3--|
   E  E  E  E  E  E  E  E  E  E  E  E    E  E  E  E  E  E  E  E  E  E  E  E
|-------------------------------------|----------------------------------------|
|-12-12-12-12-12-12-------------------|----------------------------------------|
|-------------------14-14-14-12-12-12-|-11-11-11-11-11-11-12-12-12-14-14-14----|
|-------------------------------------|----------------------------------------|
|-------------------------------------|----------------------------------------|
|-------------------------------------|----------------------------------------|
|
|           PM------------|                       PM---|            PM---|
|           |--3--|  |--3--|                      |--3--|           |--3--|
|  Q        E  E  E  E  E  E  Q          Q        E  E  E  Q        E  E  E
|-------------------------------------|----------------------------------------|
|-------------------------------------|----------------------------------------|
|-------------------------------------|----------------------------------------|
|-------------------------------------|--7-----------------7-------------------|
|--9--------------------------9-------|--5--------5--5--5--5--------5--5--5----|
|--7--------7--7--7--7--7--7--7-------|----------------------------------------|


  Em/BVIII
   W
   |
   /

   |--3--|  |--3--|  |--3--|  |--3--|
   E  E  E  E  E  E  E  E  E  E  E  E
|-------------------------------------|
|-------------------------------------|
|-12-12-12-12-12-12-11-11-11----------|
|----------------------------14-14-14-|
|-------------------------------------|
|-------------------------------------|
|
|           PM------------|
|           |--3--|  |--3--|
|  Q        E  E  E  E  E  E  Q
|-------------------------------------|
|-------------------------------------|
|-------------------------------------|
|--9--------------------------9-------|
|--7--------7--7--7--7--7--7--7-------|
|-------------------------------------|


  D                                     B5               C(typeD(type 3)
   W                                     W                H     H
   |                                     |                |     |
   /                                     /                /     /

   |--3--|  |--3--|  |--3--|  |--3--|
   E  E  E  E  E  E  E  E  E  E  E  E    W                H     H
|-------------------------------------|----------------|-------------|
|-------------------------------------|----------------|-------------|
|-11-11-11-11-11-11-------------------|-11-------------|-12----14----|
|-------------------14-14-14-12-12-12-|----------------|-------------|
|-------------------------------------|----------------|-------------|
|-------------------------------------|----------------|-------------|
|
|           PM------------|                      PM--|
|           |--3--|  |--3--|                     |-3-|
|  Q        E  E  E  E  E  E  Q          H.      E E E    H     H
|-------------------------------------|----------------|-------------|
|-------------------------------------|----------------|-------------|
|-------------------------------------|----------------|--------7----|
|--7--------------------------7-------|--9-------------|-10-----7----|
|--5--------5--5--5--5--5--5--5-------|--9-------------|-10-----5----|
|-------------------------------------|--7-------7-7-7-|--8----------|


  Em/B                                  Bm
   W                                     W
   |                                     |
   /                                     /

   |--3--|  |--3--|  |--3--|  |--3--|    |--3--|  |--3--|  |--3--|  |--3--|
   E  E  E  E  E  E  E  E  E  E  E  E    E  E  E  E  E  E  E  E  E  E  E  E
|-------------------------------------|-------------------------------------|
|-12-12-12-12-12-12-------------------|-------------------------------------|
|-------------------14-14-14-12-12-12-|-14-14-14-14-14-14-12-12-12-11-11-11-|
|-------------------------------------|-------------------------------------|
|-------------------------------------|-------------------------------------|
|-------------------------------------|-------------------------------------|
|
|           PM------------|                       PM------------|
|           |--3--|  |--3--|                      |--3--|  |--3--|
|  Q        E  E  E  E  E  E  Q          Q        E  E  E  E  E  E  Q
|-------------------------------------|-------------------------------------|
|-------------------------------------|-------------------------------------|
|-------------------------------------|-------------------------------------|
|--9--------------------------9-------|-------------------------------------|
|--7--------7--7--7--7--7--7--7-------|--9--------------------------9-------|
|-------------------------------------|--7--------7--7--7--7--7--7--7-------|


  D                                     C(type 2)
   W                                     W
   |                                     |
   /                                     /

   |--3--|  |--3--|  |--3--|  |--3--|
   E  E  E  E  E  E  E  E  E  E  E  E    H     Q   Q
|-------------------------------------|---------------|
|-------------------------------------|---------------|
|-14-14-14-14-14-14-12-12-12-11-11-11-|-----------11--|
|-------------------------------------|-14----14------|
|-------------------------------------|---------------|
|-------------------------------------|---------------|
|
|           PM------------|
|           |--3--|  |--3--|
|  Q        E  E  E  E  E  E  Q          W
|-------------------------------------|---------------|
|-------------------------------------|---------------|
|-------------------------------------|--5------------|
|--7--------------------------7-------|--5------------|
|--5--------5--5--5--5--5--5--5-------|--3------------|
|-------------------------------------|---------------|


  Am                                    Bm
   W                                     W
   |                                     |
   /                                     /

   |--3--|  |--3--|  |--3--|  |--3--|    |--3--|  |--3--|  |--3--|  |--3--|
   E  E  E  E  E  E  E  E  E  E  E  E    E  E  E  E  E  E  E  E  E  E  E  E
|-------------------------------------|-------------------------------------|
|-------------------------------------|-------------------------------------|
|-------------------11-11-11-12-12-12-|-11-11-11-11-11-11-------------------|
|-14-14-14-14-14-14-------------------|-------------------14-14-14-12-12-12-|
|-------------------------------------|-------------------------------------|
|-------------------------------------|-------------------------------------|
|
|           PM---------------------|              PM---------------------|
|           |--3--|  |--3--|  |--3--|             |--3--|  |--3--|  |--3--|
|  Q        E  E  E  E  E  E  E  E  E    Q        E  E  E  E  E  E  E  E  E
|-------------------------------------|-------------------------------------|
|-------------------------------------|-------------------------------------|
|-------------------------------------|-------------------------------------|
|-------------------------------------|-------------------------------------|
|--7----------------------------------|--9----------------------------------|
|--5--------5--5--5--5--5--5--5--5--5-|--7--------7--7--7--7--7--7--7--7--7-|


  C(type 2)                             D
   W                                     W
   |                                     |
   /                                     /

   |--3--|  |--3--|  |--3--|  |--3--|    |--3--|  |--3--|  |--3--|  |--3--|
   E  E  E  E  E  E  E  E  E  E  E  E    E  E  E  E  E  E  E  E  E  E  E  E
|-------------------------------------|----------------------------------------|
|----------------------------12-12-12-|----------------------------------------|
|-12-12-12-12-12-12-14-14-14----------|-14-14-14-14-14-14-12-12-12-11-11-11----|
|-------------------------------------|----------------------------------------|
|-------------------------------------|----------------------------------------|
|-------------------------------------|----------------------------------------|
|
|           PM---------------------|              PM---------------------|
|           |--3--|  |--3--|  |--3--|             |--3--|  |--3--|  |--3--|
|  Q        E  E  E  E  E  E  E  E  E    Q        E  E  E  E  E  E  E  E  E
|-------------------------------------|----------------------------------------|
|-------------------------------------|----------------------------------------|
|-------------------------------------|----------------------------------------|
|-------------------------------------|--7-------------------------------------|
|-10----------------------------------|--5--------5--5--5--5--5--5--5--5--5----|
|--8--------8--8--8--8--8--8--8--8--8-|----------------------------------------|


  Am
   W
   |
   /

   |--3--|  |--3--|  |--3--|  |--3--|
   E  E  E  E  E  E  E  E  E  E  E  E
|-------------------------------------|
|-------------------------------------|
|-------------------11-11-11-12-12-12-|
|-14-14-14-14-14-14-------------------|
|-------------------------------------|
|-------------------------------------|
|
|           PM---------------------|
|           |--3--|  |--3--|  |--3--|
|  Q        E  E  E  E  E  E  E  E  E
|-------------------------------------|
|-------------------------------------|
|-------------------------------------|
|-------------------------------------|
|--7----------------------------------|
|--5--------5--5--5--5--5--5--5--5--5-|
|
| Gtr VI
|  W
|-------------------------------------|
|-------------------------------------|
|-------------------------------------|
|-------------------------------------|
|-------------------------------------|
|-------------------------------------|


  Bm                                    Em/B
   W                                     W                       +W
   |                                     |                        |
   /                                     /                        /

   |--3--|  |--3--|  |--3--|  |--3--|
   E  E  E  E  E  E  E  E  E  E  E  E    W                       +W
|-------------------------------------|-----------------------|---------*|
|-------------------------------------|-----------------------|---------*|
|-11-11-11-11-11-11-------------------|-----------------------|---------*|
|-------------------14-14-14-12-12-12-|-14--------------------|-(14)----*|
|-------------------------------------|-----------------------|---------*|
|-------------------------------------|-----------------------|---------*|
|
|           PM---------------------|        PM--------------|
|           |--3--|  |--3--|  |--3--|       |-3-| |-3-| |-3-|
|  Q        E  E  E  E  E  E  E  E  E    Q  E E E E E E E E E     W
|-------------------------------------|-----------------------|---------*|
|-------------------------------------|-----------------------|---------*|
|-------------------------------------|-----------------------|---9-----*|
|-------------------------------------|--9--------------------|---9-----*|
|--9----------------------------------|--7--7-7-7-7-7-7-7-7-7-|---7-----*|
|--7--------7--7--7--7--7--7--7--7--7-|-----------------------|---------*|
|
|  W                                     W                       +W
|-------------------------------------|-24--------------------|-(24)----*|
|-------------------------------------|-24--------------------|-(24)----*|
|-------------------------------------|-24--------------------|-(24)----*|
|-------------------------------------|-26--------------------|-(26)----*|
|-------------------------------------|-----------------------|---------*|
|-------------------------------------|-----------------------|---------*|



Duration Legend
---------------
W - whole; H - half; Q - quarter; E - 8th; S - 16th; T - 32nd; X - 64th; a - acciaccatura
+ - note tied to previous; . - note dotted; .. - note double dotted
Uncapitalized letters represent notes that are staccato (1/2 duration)
Irregular groupings are notated above the duration line
Duration letters will always appear directly above the note/fret number it represents the
duration for.  Duration letters with no fret number below them represent rests.  Multi-
bar rests are notated in the form Wxn, where n is the number of bars to rest for.  Low
melody durations appear below the staff

Tablature Legend
----------------
 h   - hammer-on
 p   - pull-off
 b   - bend
 pb  - pre-bend
 r   - bend release (if no number after the r, then release immediately)
 /\  - slide into or out of (from/to "nowhere")
 s   - legato slide
 S   - shift slide
 - natural harmonic
[n]  - artificial harmonic
n(n) - tapped harmonic
 ~   - vibrato
 tr  - trill
 T   - tap
 TP  - trem. picking
 PM  - palm muting
\n/  - tremolo bar dip; n = amount to dip
 \n  - tremolo bar down
 n/  - tremolo bar up
/n\  - tremolo bar inverted dip
 =   - hold bend; also acts as connecting device for hammers/pulls
 <> - volume swell (louder/softer)
 x   - on rhythm slash represents muted slash
 o   - on rhythm slash represents single note slash

Misc Legend
-----------
 |  - bar
||  - double bar
||o - repeat start
o|| - repeat end
*|  - double bar (ending)
 :  - bar (freetime)
 $  - Segno
 &  - Coda
Tempo markers -  = BPM(8/16=s8/s16), where s8 = swing 8ths, s16 = swing 16ths


            
            
Suggest correction
Creating personal tab
Creating personal tab
You can edit any tab online and save it as your Personal.

You can edit, replace or remove any tab part or add personal notes – all changes will be seen only by you.

Personal tabs can be accessed anytime from any device, even offline.
Learn more »
comments
print report bad tab
1 comment total.
0 reply
CLIFF_BURTON 122 Nov 21, 2008 03:19 PM

are those....chords at first?

guest
You may want to rate the tab now too:
select rating
Wanna post a correction for this tab? Suggest correction