Oops, an error
Loading. Please wait.

Winter Madness bass

version 1
version 1

Whole song

Interactive

1,552 views 1 this week
1 commentread comment
1 2 3 4 5
3 more votes to show rating
add to favorites
×
Save as Personal and add changes to this tab that will be seen only by you. Learn more ›
×
You can save this tab as Personal to edit and correct it or add notes. All changes will be seen only by you. Learn more »
launch autoscroll
font size
0
reset
guitar tuner
edit
Autoscroll
slow
fast
+/-
esc
set tempo
stop
#----------------------------------PLEASE NOTE---------------------------------#
#This file is the author's own work and represents their interpretation of the #
#song. You may only use this file for private study, scholarship, or research. #
#------------------------------------------------------------------------------#

WINTER MADNESS (Bassline)
As recorded by Wintersun
(From the 2005 Album WINTERSUN)

Transcribed by metal7690
	

Words and Music by Jari Maenpaa
Arranged by Jari Maenpaa

Gtr I (A D G C E A) - 'Untitled'

 Intro
  Q=210
 3/4
  Gtr I
  Q  S S S S Q    Q  S S S S Q    Q  S S S S Q
|---------------|---------------|---------------|
|---------------|---------------|---------------|
|---------------|---------------|---------------|
|-2--2-2-2-2----|-2--2-2-2-2----|-2--0-0-0-0-0--|
|------------2--|------------2--|---------------|
|---------------|---------------|---------------|


  Q  S S S S Q    Q  S S S S Q
|---------------|----------------|
|---------------|----------------|
|---------------|----------------|
|-0--0-0-0-0-2--|-2--2-2-2-2-----|
|---------------|------------2---|
|---------------|----------------|


  Q  S S S S Q    Q  Q  S S S S   Q  S S S S Q    Q  S S S S Q    Q  S S S S Q
|---------------|---------------|---------------|---------------|--------------|
|---------------|---------------|---------------|---------------|--------------|
|---------------|---------------|---------------|---------------|--------------|
|-2--2-2-2-2----|-2--0--0-0-0-0-|-0----------2--|-2--2-2-2-2----|-2--2-2-2-2---|
|------------2--|---------------|----2-2-2-2----|------------2--|------------2-|
|---------------|---------------|---------------|---------------|--------------|


  Q  S S S S Q    Q  S S S S Q    Q  S S S S Q
|---------------|---------------|---------------|
|---------------|---------------|---------------|
|---------------|---------------|---------------|
|-2--0-0-0-0-0--|-2----------2--|-2--2-2-2-2----|
|---------------|----2-2-2-2----|------------2--|
|---------------|---------------|---------------|


  Q  S S S S Q    Q  Q  Q    Q  E E Q
|---------------|----------|------------|
|---------------|----------|------------|
|---------------|----------|------------|
|-2--2-2-2-2----|-2--0--2--|----2-------|
|------------2--|----------|-2----------|
|---------------|----------|------------|


 Verse
  E E E E E E   E E E E E E   E E E E E E
|-------------|-------------|-------------|
|-------------|-------------|-------------|
|-------------|-------------|-------------|
|-2-2-2-2-2-2-|-2-2-2-2-----|-------------|
|-------------|---------2-2-|-2-2-2-2-2-2-|
|-------------|-------------|-------------|


  E E E E E E   E E E E E E   E E E E E E
|-------------|-------------|-------------|
|-------------|-------------|-------------|
|-----0-0-0-0-|-0-0---------|-------------|
|-------------|-----2-2-2-2-|---------0-0-|
|-2-2---------|-------------|-2-2-2-2-----|
|-------------|-------------|-------------|


  E E E E E E   E E E E E E   E E E E E E
|-------------|-------------|-------------|
|-------------|-------------|-------------|
|-------------|-------------|-------------|
|-2-2-2-2-2-2-|-2-2-2-2-2-2-|-2-2-2-2-----|
|-------------|-------------|---------2-2-|
|-------------|-------------|-------------|


  E E E E E E   E E E E E E   E E E E E E
|-------------|-------------|-------------|
|-------------|-------------|-------------|
|-------------|-----0-0-0-0-|-0-0---------|
|-------------|-------------|-----2-2-2-2-|
|-2-2-2-2-2-2-|-2-2---------|-------------|
|-------------|-------------|-------------|


  E E E E E E   E E E E E E   E E E E E E
|-------------|-------------|-------------|
|-------------|-------------|-------------|
|-------------|-------------|-------------|
|---------0-0-|-2-2-2-2-2-2-|-2-2-2-2-2-2-|
|-2-2-2-2-----|-------------|-------------|
|-------------|-------------|-------------|


  E E E E E E   E E E E E E   E E E E E E
|-------------|-------------|-------------|
|-------------|-------------|-------------|
|-------------|-------------|-----0-0-0-0-|
|-2-2-2-2-----|-------------|-------------|
|---------2-2-|-2-2-2-2-2-2-|-2-2---------|
|-------------|-------------|-------------|


  E E E E E E   Q.   Q.     H.        E E E E E E   E E E E E E   E E E E E E
|-------------|-----------|---------|-------------|-------------|-------------|
|-------------|-----------|---------|-------------|-------------|-------------|
|-0-0---------|-----------|---------|-------------|-------------|-------------|
|-----2-2-2-2-|------0----|-2-------|-2-2-2-2-2-2-|-2-2-2-2-----|-------------|
|-------------|-2---------|---------|-------------|---------2-2-|-2-2-2-2-2-2-|
|-------------|-----------|---------|-------------|-------------|-------------|


  E E E E E E   E E E E E E   Q.   Q.
|-------------|-------------|-----------|
|-------------|-------------|-----------|
|-----0-0-0-0-|-0-0---------|-----------|
|-------------|-----2-2-2-2-|------0----|
|-2-2---------|-------------|-2---------|
|-------------|-------------|-----------|


           Pre-Verse
  H.        Q  E E Q    Q  E E Q    Q  E E Q
|---------|-----------|-----------|-------------|
|---------|-----------|-----------|-------------|
|---------|-----------|-----------|-------------|
|-2-------|-2--2-2----|-2--2-2----|-2--0-0-0----|
|---------|--------2--|--------2--|-------------|
|---------|-----------|-----------|-------------|


  Q  E E Q    Q  E E Q    Q  E E Q    Q  Q  E E
|-----------|-----------|-----------|-----------|
|-----------|-----------|-----------|-----------|
|-----------|-----------|-----------|-----------|
|-0------2--|-2--2-2----|-2--2-2----|-2--0--0-0-|
|----2-2----|--------2--|--------2--|-----------|
|-----------|-----------|-----------|-----------|


  Q  E E Q    Q  E E Q    E E E E Q
|-----------|-----------|--------------|
|-----------|-----------|--------------|
|-----------|-----------|--------------|
|-0------2--|-2--2-2-0--|-0-0-----2----|
|----2-2----|-----------|-----2-2------|
|-----------|-----------|--------------|


  Q  Q  E E   Q  Q  Q    E E Q  Q    Q  E E Q    Q  E E Q    H.
|-----------|----------|-----------|-----------|-----------|-------|
|-----------|----------|-----------|-----------|-----------|-------|
|-----------|----------|-----------|-----------|-----------|-------|
|-----------|----0--2--|-2-2-2-----|-----------|-2----0-4--|-2-----|
|----2--2-2-|-2--------|--------2--|-3--3-3-3--|----2------|-------|
|-----------|----------|-----------|-----------|-----------|-------|


 Verse
  S S S S S S S S S S S S   S S S S S S S S S S S S   S S S S S S S S S S S S
|-------------------------|-------------------------|-------------------------|
|-------------------------|-------------------------|-------------------------|
|-------------------------|-------------------------|-------------------------|
|-2-2-2-2-2-2-2-2-2-2-2-2-|-0-0-0-0-0-0-0-0-0-0-0-0-|-----------------0-0-0-0-|
|-------------------------|-------------------------|-2-2-2-2-2-2-2-2---------|
|-------------------------|-------------------------|-------------------------|


  S S S S S S S S S S S S   Q  S S S S S S S S
|-0-0-0-0---------0-0-0-0-|--------------------|
|---------0-0-0-0---------|--------------------|
|-------------------------|--------------------|
|-------------------------|----0-0-0-0-0-0-0-0-|
|-------------------------|--------------------|
|-------------------------|--------------------|


  Q  S S S S S S S S   Q  S S S S S S S S   H.
|--------------------|--------------------|-------|
|--------------------|--------------------|-------|
|--------------------|--------------------|-------|
|--------------------|--------------------|-------|
|----2-2-2-2-2-2-2-2-|----0-0-0-0-0-0-0-0-|-2-----|
|--------------------|--------------------|-------|


  S S S S S S S S S S S S   S S S S S S S S S S S S   S S S S S S S S S S S S
|-------------------------|-------------------------|-------------------------|
|-------------------------|-------------------------|-------------------------|
|-------------------------|-------------------------|-------------------------|
|-2-2-2-2-2-2-2-2-2-2-2-2-|-0-0-0-0-0-0-0-0-0-0-0-0-|-----------------0-0-0-0-|
|-------------------------|-------------------------|-2-2-2-2-2-2-2-2---------|
|-------------------------|-------------------------|-------------------------|


  S S S S S S S S S S S S   Q  S S S S S S S S
|-------------------------|--------------------|
|-------------------------|--------------------|
|-------------------------|--------------------|
|-2-2-2-2---------2-2-2-2-|----0-0-0-0-0-0-0-0-|
|---------2-2-2-2---------|--------------------|
|-------------------------|--------------------|


  Q  S S S S S S S S   Q  S S S S S S S S   H.
|--------------------|--------------------|-------|
|--------------------|--------------------|-------|
|--------------------|--------------------|-------|
|--------------------|--------------------|-------|
|----2-2-2-2-2-2-2-2-|----0-0-0-0-0-0-0-0-|-2-----|
|--------------------|--------------------|-------|


 4/4
  E E E E Q  E E   Q  E E E E E E   E E E E E E Q    E E E E Q  E E
|----------------|----------------|----------------|----------------|
|----------------|----------------|----------------|----------------|
|----------------|----------------|----------------|----------------|
|----------------|----------------|----------------|---------5--4-5-|
|-3-3-3-3-3--5-5-|-5--5-5-3-3-3-3-|-2-2-2-2-2-2-2--|-3-3-3-3--------|
|----------------|----------------|----------------|----------------|


  E E E E E E E E   E E E E E E E E   E E E E E E E E   E E E E E E E E
|-----------------|-----------------|-----------------|------------------|
|-----------------|-----------------|-----------------|-------------3----|
|-----------------|-----------------|---------5-2---5-|-2---5-2---5---5--|
|-2-2-2-2-2-2-2-2-|-2-2-2-2-2-2-2-2-|-2-2-2-2-----2---|---2-----2--------|
|-----------------|-----------------|-----------------|------------------|
|-----------------|-----------------|-----------------|------------------|


  E E E E E E E E   E E E E E E E E   E E E E E E E E   E E E E E E E E
|-----------------|-----------------|-----------------|------------------|
|-----------------|-----------------|-----------------|------------------|
|-2-2-2-2-2-2-2-2-|-2-2-2-2-2-2-2-2-|-2-2-2-2-2-2-2-2-|-2-2-2-2-2-2-2-2--|
|-----------------|-----------------|-----------------|------------------|
|-----------------|-----------------|-----------------|------------------|
|-----------------|-----------------|-----------------|------------------|


  E E E E E E E E   E E E E E E E E
|-----------------|-----------------|
|-----------------|-----------------|
|-0-0-0-0-0-0-0-0-|-0-0-0-0-0-0-0-0-|
|-----------------|-----------------|
|-----------------|-----------------|
|-----------------|-----------------|


                                      Chorus
           |-3-|   |-3-| |-3-|
  Q  Q  Q  E E E   E E E E E E Q  Q    W
|----------------|-------------------|------|
|----1-----1-1-1-|-------------------|------|
|-------2--------|-------2-2-2-5--4--|-2----|
|-2--------------|-2-2-2-------------|------|
|----------------|-------------------|------|
|----------------|-------------------|------|


  H.      Q    H    H      H    H      W          H    H
|------------|-----------|-----------|----------|-----------|
|------------|-----------|-----------|----------|-----------|
|------------|-----------|-----------|----------|-----------|
|-0----------|-----------|-5----7----|-7--------|------5----|
|---------7--|-8----5----|-----------|----------|-7---------|
|------------|-----------|-----------|----------|-----------|


  H    H      W          W          H.      Q
|-----------|----------|----------|--------------|
|-----------|----------|----------|--------------|
|-----------|----------|----------|--------------|
|-----------|----------|-7--------|--------------|
|------7----|-5--------|----------|-5-------7----|
|-8---------|----------|----------|--------------|


                                                                Pre-Verse
                                                                3/4
  H    Q  Q    H.      Q    H    H      H    H      H    Q  Q    Q  S S S S Q
|------------|------------|-----------|-----------|------------|--------------|
|------------|------------|-----------|-----------|------------|--------------|
|------------|------------|-----------|-----------|------------|--------------|
|---------5--|-7----------|------5----|-7---------|---------5--|-7--7-7-7-7---|
|-8----3-----|---------7--|-8---------|------5----|-7----7-----|------------7-|
|------------|------------|-----------|-----------|------------|--------------|


  Q  S S S S Q    Q  S S S S Q    Q  S S S S Q    Q  S S S S Q    Q  S S S S Q
|---------------|---------------|---------------|---------------|--------------|
|---------------|---------------|---------------|---------------|--------------|
|---------------|---------------|---------------|---------------|--------------|
|-7--7-7-7-7----|-7--5-5-5-5-5--|-5----------7--|-7--7-7-7-7----|-7--7-7-7-7---|
|------------7--|---------------|----7-7-7-7----|------------7--|------------7-|
|---------------|---------------|---------------|---------------|--------------|


  Q  S S S S Q    Q  S S S S Q    Q  S S S S Q
|---------------|---------------|---------------|
|---------------|---------------|---------------|
|---------------|---------------|---------------|
|-7--5-5-5-5-5--|-5----------7--|-7--7-7-7-7----|
|---------------|----7-7-7-7----|------------7--|
|---------------|---------------|---------------|


  Q  S S S S Q    Q  Q  S S S S
|---------------|-----------------|
|---------------|-----------------|
|---------------|-----------------|
|-7--7-7-7-7----|-7--5--5-5-5-5---|
|------------7--|-----------------|
|---------------|-----------------|


  Q  Q  Q    Q  S S S S Q    Q  S S S S Q    Q  E E E E   E E E E E E
|----------|---------------|---------------|------------|-------------|
|----------|---------------|---------------|------------|-------------|
|----------|---------------|---------------|------------|-------------|
|-5-----7--|-7--7-7-7-7----|-7--7-7-7-7----|-7--5---2---|-0-------4-0-|
|----7-----|------------7--|------------7--|------------|-----3-------|
|----------|---------------|---------------|------------|-------------|


 Verse
  S S S S S S E Q    Q  S S S S S S S S
|------------------|--------------------|
|------------------|--------------------|
|------------------|--------------------|
|-2-2-2-2-2-2------|----2-2-2-2---------|
|------------------|------------2-2-2-2-|
|------------------|--------------------|


  E E H      S S S S E E E E   E E E E E E
|----------|-----------------|-------------|
|----------|-----------------|-------------|
|----------|-----------------|-------------|
|----------|---------5-5-5-5-|-5-5-2-2-2-2-|
|-2--------|-2-2-2-2---------|-------------|
|----------|-----------------|-------------|


  E E E E E E   H.        S S S S S S E Q    Q  S S S S S S S S   E E H
|-------------|---------|------------------|--------------------|----------|
|-------------|---------|------------------|--------------------|----------|
|-------------|---------|------------------|--------------------|----------|
|-------0-0-0-|-2-------|-2-2-2-2-2-2------|----2-2-2-2---------|----------|
|-2-2-2-------|---------|------------------|------------2-2-2-2-|-2--------|
|-------------|---------|------------------|--------------------|----------|


  S S S S E E E E   E E E E E E   Q.   Q.
|-----------------|-------------|-----------|
|-----------------|-------------|-----------|
|-----------------|-------------|-----------|
|---------5-5-5-5-|-5-5-2-2-2-2-|------0----|
|-2-2-2-2---------|-------------|-2---------|
|-----------------|-------------|-----------|


  H.        H.        H    Q    H    Q    H.
|---------|---------|---------|---------|-------|
|---------|---------|---------|---------|-------|
|---------|---------|---------|---------|-------|
|-2-------|-2-------|------2--|-0----0--|-2-----|
|---------|---------|-2-------|---------|-------|
|---------|---------|---------|---------|-------|


  E E E E E E   E E E E E E   E E E E E E
|-------------|-------------|-------------|
|-------------|-------------|-------------|
|-------------|-------------|-------------|
|-------------|-0-0-0-0-0-0-|-------------|
|-2-2-2-2-2-2-|-------------|-0-0-0-0-0-0-|
|-------------|-------------|-------------|


  E E E E E E   H.        H    Q    H    Q
|-------------|---------|---------|-----------|
|-------------|---------|---------|-----------|
|-------------|---------|---------|-----------|
|-2-2-2-2-2-2-|-2-------|------2--|-0----0----|
|-------------|---------|-2-------|-----------|
|-------------|---------|---------|-----------|


  H.        E E E E E E   E E E E E E
|---------|-------------|-------------|
|---------|-------------|-------------|
|---------|-------------|-------------|
|-2-------|-------------|-0-0-0-0-0-0-|
|---------|-2-2-2-2-2-2-|-------------|
|---------|-------------|-------------|


                             Pre-Chorus
                             4/4
  E E E E E E   E E E E E E   E E E E E E E E
|-------------|-------------|-------------------|
|-------------|-------------|-------------------|
|-------------|-------------|-------------------|
|-------------|-2-2-2-2-2-2-|-------------------|
|-0-0-0-0-0-0-|-------------|-3-3-3-3-3-3-3-3---|
|-------------|-------------|-------------------|


  E E E E Q  E E   E E E E E E E E   E E E E E E E E   E E E E E E E E
|----------------|-----------------|-----------------|------------------|
|----------------|-----------------|-----------------|------------------|
|--------------0-|---------------2-|---2-4---2-5---2-|-2-2-2-2-2-2-2-2--|
|------------4---|-2-2-2-2-2-2-2---|-2-----2-----2---|------------------|
|-3-3-3-3-3------|-----------------|-----------------|------------------|
|----------------|-----------------|-----------------|------------------|


  E E E E E E E E   H.      E E   Q  E E Q  E E
|-----------------|-------------|---------------|
|-----------------|-------------|---------------|
|-2-2-2-2-2-2-2-2-|-0-----------|---------------|
|-----------------|---------2-2-|-2------2--2-2-|
|-----------------|-------------|----2-2--------|
|-----------------|-------------|---------------|


         Chorus
 2/4     4/4
  Q  Q    W          H.      Q    H    H
|-------|----------|------------|-----------|
|-------|----------|------------|-----------|
|-------|----------|------------|-----------|
|-2-----|-7--------|------------|-----------|
|-------|----------|-5-------7--|-8----5----|
|-------|----------|------------|-----------|


  Q  E E H      W          H    H      H    H
|-------------|----------|-----------|-----------|
|-------------|----------|-----------|-----------|
|-------------|----------|-----------|-----------|
|-5--5-5-7----|-7--------|------5----|-----------|
|-------------|----------|-7---------|------7----|
|-------------|----------|-----------|-8---------|


  Q  E E Q  E E   W          H.      S S S S
|---------------|----------|-----------------|
|---------------|----------|-----------------|
|---------------|----------|-----------------|
|---------------|-7--------|-----------------|
|-5--5-5-5--5-5-|----------|-5-------7-7-7-7-|
|---------------|----------|-----------------|


  Q  E E Q  Q    H.      Q    Q  S S S S Q  S S S S
|--------------|------------|-----------------------|
|--------------|------------|-----------------------|
|--------------|------------|-----------------------|
|-----------5--|-7----------|------------5--5-5-5-5-|
|-8--8-8-3-----|---------7--|-8--8-8-8-8------------|
|--------------|------------|-----------------------|


  Q  S S S S Q  S S S S   H    Q  Q
|-----------------------|--------------|
|-----------------------|--------------|
|-----------------------|--------------|
|-7--7-7-7-7------------|---------5----|
|------------5--5-5-5-5-|-7----7-------|
|-----------------------|--------------|


 Interlude
  H    H      W          W          W
|-----------|----------|----------|----------|
|-----------|----------|----------|----------|
|-----------|----------|----------|----------|
|-7---------|----------|----------|----------|
|-----------|----------|----------|----------|
|-----------|----------|----------|----------|


  Q.   H    E   Q  H    Q    Q.   Q.   Q    +E  E Q  H
|-------------|------------|--------------|--------------|
|-------------|------------|--------------|--------------|
|-------------|------------|--------------|--------------|
|-0----0----0-|-0--0----2--|-3----0----0--|-(0)-0-0------|
|-------------|------------|--------------|--------------|
|-------------|------------|--------------|--------------|


  Q.   H    +E    +W           Q.   Q.   Q    +E  Q.   Q  Q
|---------------|------------|--------------|----------------|
|---------------|------------|--------------|----------------|
|-2-------------|------------|--------------|----------2--2--|
|------2----(2)-|-(2)--------|-0----0----3--|-(3)-3----------|
|---------------|------------|--------------|----------------|
|---------------|------------|--------------|----------------|


  Q  H    Q    Q  Q  E E E E   Q.   Q  Q  E
|------------|---------------|----------------|
|------------|---------------|----------------|
|------------|---------------|----------------|
|-0--0----0--|-0--0--0-0-2-2-|-3----0--0--0---|
|------------|---------------|----------------|
|------------|---------------|----------------|


 Guitar Solo
            |-3-| |-3-|               |-3-| |-3-| |-3-| |-3-|
  +E  E E E E E E E E E   H    H      E E E E E E E E E E E E
|-----------------------|-----------|--------------------------|
|-----------------------|-----------|--------------------------|
|-----------------------|-----------|--------------------------|
|-(0)-3-3-3-3-3-3-3-2-0-|-----------|--------------------------|
|-----------------------|-0---------|-5-5-5-5-5-5-5-5-5-7-7-7--|
|-----------------------|-----------|--------------------------|


  |-3-| |-3-| |-3-| |-3-|   |-3-| |-3-| |-3-| |-3-|   |-3-| |-3-| |-3-| |-3-|
  E E E E E E E E E E E E   E E E E E E E E E E E E   E E E E E E E E E E E E
|-------------------------|-------------------------|-------------------------|
|-------------------------|-------------------------|-------------------------|
|-------------------------|-------------------------|-------------------------|
|-------------------------|-5-5-5-5-5-5-7-7-7-7-7-7-|-7-7-7-7-7-7-7-7-7-7-7-7-|
|-8-8-8-8-8-8-5-5-5-5-5-5-|-------------------------|-------------------------|
|-------------------------|-------------------------|-------------------------|


  |-3-| |-3-| |-3-| |-3-|   |-3-| |-3-| |-3-| |-3-|   |-3-| |-3-| |-3-| |-3-|
  E E E E E E E E E E E E   E E E E E E E E E E E E   E E E E E E E E E E E E
|-------------------------|-------------------------|-------------------------|
|-------------------------|-------------------------|-------------------------|
|-------------------------|-------------------------|-------------------------|
|-------------5-5-5-5-5-5-|-------------------------|-------------------------|
|-7-7-7-7-7-7-------------|-------------7-7-7-7-7-7-|-5-5-5-5-5-5-5-5-5-5-5-5-|
|-------------------------|-8-8-8-8-8-8-------------|-------------------------|


  |-3-| |-3-| |-3-| |-3-|   |-3-| |-3-| |-3-| |-3-|   |-3-| |-3-| |-3-| |-3-|
  E E E E E E E E E E E E   E E E E E E E E E E E E   E E E E E E E E E E E E
|-------------------------|-------------------------|-------------------------|
|-------------------------|-------------------------|-------------------------|
|-------------------------|-------------------------|-------------------------|
|-7-7-7-7-7-7-7-7-7-7-7-7-|-------------------------|-------------------5-5-5-|
|-------------------------|-5-5-5-5-5-5-5-5-5-7-7-7-|-8-8-8-8-8-8-3-3-3-------|
|-------------------------|-------------------------|-------------------------|


  |-3-| |-3-| |-3-| |-3-|   |-3-| |-3-| |-3-| |-3-|   |-3-| |-3-| |-3-| |-3-|
  E E E E E E E E E E E E   E E E E E E E E E E E E   E E E E E E E E E E E E
|-------------------------|-------------------------|-------------------------|
|-------------------------|-------------------------|-------------------------|
|-------------------------|-------------------------|-------------------------|
|-7-7-7-7-7-7-7-7-7-------|-------------5-5-5-5-5-5-|-7-7-7-7-7-7-------------|
|-------------------7-7-7-|-8-8-8-8-8-8-------------|-------------5-5-5-5-5-5-|
|-------------------------|-------------------------|-------------------------|


  |-3-| |-3-| |-3-| |-3-|   |-3-| |-3-| |-3-| |-3-|   |-3-| |-3-| |-3-| |-3-|
  E E E E E E E E E E E E   E E E E E E E E E E E E   E E E E E E E E E E E E
|-------------------------|-------------------------|-------------------------|
|-------------------------|-------------------------|-------------------------|
|-------------------------|-------------------------|-------------------------|
|-------------------------|-7-7-7-7-7-7-7-7-7-7-7-7-|-7-7-7-7-7-7-7-7-7-7-7-7-|
|-7-7-7-7-7-7-7-7-7-7-7-7-|-------------------------|-------------------------|
|-------------------------|-------------------------|-------------------------|


  |-3-| |-3-| |-3-| |-3-|   |-3-| |-3-| |-3-| |-3-|   |-3-| |-3-| |-3-| |-3-|
  E E E E E E E E E E E E   E E E E E E E E E E E E   E E E E E E E E E E E E
|-------------------------|-------------------------|-------------------------|
|-------------------------|-------------------------|-------------------------|
|-------------------------|-------------------------|-------------------------|
|-------------------------|-------------------------|-5-5-5-5-5-5-7-7-7-7-7-7-|
|-5-5-5-5-5-5-5-5-5-7-7-7-|-8-8-8-8-8-8-5-5-5-5-5-5-|-------------------------|
|-------------------------|-------------------------|-------------------------|


  |-3-| |-3-| |-3-| |-3-|   |-3-| |-3-| |-3-| |-3-|   |-3-| |-3-| |-3-| |-3-|
  E E E E E E E E E E E E   E E E E E E E E E E E E   E E E E E E E E E E E E
|-------------------------|-------------------------|-------------------------|
|-------------------------|-------------------------|-------------------------|
|-------------------------|-------------------------|-------------------------|
|-7-7-7-7-7-7-7-7-7-7-7-7-|-------------5-5-5-5-5-5-|-------------------------|
|-------------------------|-7-7-7-7-7-7-------------|-------------7-7-7-7-7-7-|
|-------------------------|-------------------------|-8-8-8-8-8-8-------------|


  |-3-| |-3-| |-3-| |-3-|        |-3-|  |--3--|   |-3-| |-3-| |-3-| |-3-|
  E E E E E E E E E E E E   H    E E E  E  E  E   E E E E E E E E E E E E
|-------------------------|---------------------|-------------------7-7-7-|
|-------------------------|---------------------|-------------9-9-9-------|
|-------------------------|---------------------|-------7-7-7-------------|
|-------------------------|-7----9-9-9-10-10-10-|-9-9-9-------------------|
|-5-5-5-5-5-5-5-5-5-5-5-5-|---------------------|-------------------------|
|-------------------------|---------------------|-------------------------|


  |-3-|  |--3--| |-3-| |-3-|   |-3-| |-3-| |-3-| |-3-|
  E E E  E  E  E E E E E E E   E E E E E E E E E E E E
|----------------------------|-------------------------|
|-9-9-9----------------------|-------------------------|
|-------10-10-10-7-7-7-------|-------------------------|
|----------------------9-9-9-|-6-6-6-------------6-6-6-|
|----------------------------|-------7-7-7-9-9-9-------|
|----------------------------|-------------------------|


  |-3-|  |--3--| |-3-|  |--3--|
  E E E  E  E  E E E E  E  E  E
|-------------------------------|
|-------------------------------|
|----------------8-8-8-11-11-11-|
|-7-7-7-10-10-10----------------|
|-------------------------------|
|-------------------------------|


  |-3-|  |--3--| |-3-| |-3-|
  E E E  E  E  E E E E E E E
|----------------------------|
|-8-8-8-11-11-11-8-8-8-------|
|----------------------7-7-7-|
|----------------------------|
|----------------------------|
|----------------------------|


  |-3-| |-3-| |-3-| |-3-|   |-3-| |-3-| |-3-| |-3-|
  E E E E E E E E E E E E   E E E E E E E E E E E E
|-------------------------|-------------------------|
|-------------------------|-------------------------|
|-5-5-5-0-0-0-------------|-------------------------|
|-------------------------|-------------4-4-4-7-7-7-|
|-------------6-6-6-3-3-3-|-5-5-5-6-6-6-------------|
|-------------------------|-------------------------|


     |-3-| |-3-| |-3-|
  Q  E E E E E E E E E   H    H      W
|----------------------|-----------|----------|
|----------------------|-----------|----------|
|----------------------|-----------|----------|
|-5--5-5-5-5-5-5-5-5-5-|-----------|----------|
|----------------------|-3----4----|-5--------|
|----------------------|-----------|----------|


  Q  Q  Q  Q    H    H      H    H
|-------------|-----------|-----------|
|-------------|-----------|-----------|
|-------------|-----------|-----------|
|-5-----7-----|-----------|-3---------|
|-------------|-5----3----|------5----|
|-------------|-----------|-----------|


     |-3-|                |-3-|           |-3-|
  Q  E E E H      H.      E E E   H.      E E E
|---------------|---------------|---------------|
|---------------|---------------|---------------|
|---------------|---------------|---------------|
|-5--5-5-5-2----|-7-------7-7-7-|-7-------7-7-7-|
|---------------|---------------|---------------|
|---------------|---------------|---------------|


          |-3-|
  H.      E E E   E E H.        W          W
|---------------|-------------|----------|------|
|---------------|-------------|----------|------|
|-------------4-|-------------|----------|------|
|-7-------6-7---|-------------|----------|------|
|---------------|-7-----------|----------|------|
|---------------|-------------|----------|------|


     |-3-|
  Q  E E E H      E E E E E E E E   Q  E E E E Q    E. S E. S E. S E. S
|---------------|-----------------|---------------|---------------------|
|---------------|-----------------|---------------|---------------------|
|---------------|-----------------|---------------|---------------------|
|---------------|-----7-------5---|-8----6-7------|-7---------7---------|
|----7-7-7-7----|-5-------3-------|----5----------|------7---------7----|
|---------------|-----------------|---------------|---------------------|


                                         Verse
  E. S H    E. S   H    H      W          E E E E E E E E   E E E E E E E E
|----------------|-----------|----------|-----------------|-------------------|
|----------------|-----------|----------|-----------------|-------------------|
|----------------|-----------|----------|-----------------|-------4---4-------|
|-7--------------|-7---------|-7--------|-7-7-----7-7-7-7-|-----6---0---6-0---|
|-----------7----|------7----|----------|-----7-----------|-8-5---------------|
|----------------|-----------|----------|-------5---------|-------------------|


  E E E E E E E E   E E E E H      E E E E E E E E   E E E E E E E E
|-----------------|--------------|-----------------|------------------|
|-----------------|--------------|-----------------|------------------|
|-----------------|--------------|-----------------|------------------|
|-7-7-7-7-7-7-7-7-|-----7--------|-----------------|------------------|
|-----------------|-8-5---8-7----|-7-7-7-7-7-7-7-7-|-7-7-7-7-7-7-7-7--|
|-----------------|--------------|-----------------|------------------|


  E E E E E E E E   E E E E H      E E E E E E E E   E E E E E E E E
|-----------------|--------------|-----------------|------------------|
|-----------------|--------------|-----------------|------------------|
|-----------------|--------------|-----------------|------------------|
|-----------------|--------------|-7-7---7-7-7-7-7-|-6-6-6-6-6-6-6-6--|
|-7-7-7-7-7-7-7-7-|-7-7-7-7-7----|-----7-----------|------------------|
|-----------------|--------------|-----------------|------------------|


  E E E E E E E E   Q  Q  H      E E E E E E E E
|-----------------|------------|-----------------|
|-----------------|------------|-----------------|
|-----------------|------------|-----------------|
|-7-7-7-7-7-7-----|------------|-----------------|
|-------------8-7-|-5--5--7----|-7-7-7-7-7-7-7-7-|
|-----------------|------------|-----------------|


  E E E E E E E E   E E E E E E E E
|-----------------|-------------------|
|-----------------|-------------------|
|-----------------|-------------------|
|-----------------|-------------------|
|-7-7-7-7-7-7-7-7-|-7-7-7-7-7-7-7-7---|
|-----------------|-------------------|


                                Pre-Chorus
  E E E E E E E E   +W           W          H.      Q
|-----------------|------------|----------|------------|
|-----------------|------------|----------|------------|
|-----------------|------------|----------|------------|
|-----------------|------------|-7--------|------------|
|-7-7-7-7-7-7-7-7-|-(7)--------|----------|-5-------7--|
|-----------------|------------|----------|------------|


  H    H      H    H      W          H    H
|-----------|-----------|----------|----------|
|-----------|-----------|----------|----------|
|-----------|-----------|----------|----------|
|-----------|-5----7----|-7--------|------5---|
|-8----5----|-----------|----------|-7--------|
|-----------|-----------|----------|----------|


  H    H      W          W          H.      Q
|-----------|----------|----------|------------|
|-----------|----------|----------|------------|
|-----------|----------|----------|------------|
|-----------|----------|-7--------|------------|
|------7----|-5--------|----------|-5-------7--|
|-8---------|----------|----------|------------|


  H    H      H.      Q    H    H      H    H
|-----------|------------|-----------|----------|
|-----------|------------|-----------|----------|
|-----------|------------|-----------|----------|
|-----------|-7----------|------5----|-7--------|
|-8----3----|---------7--|-8---------|------5---|
|-----------|------------|-----------|----------|


                         Out-Chorus
  H    Q  Q    W          H.      E E
|------------|----------|-------------|
|------------|----------|-------------|
|------------|----------|-------------|
|---------5--|-7--------|-7-------7-7-|
|-7----7-----|----------|-------------|
|------------|----------|-------------|


  H.      S S S S   Q  E E Q  S S S S   Q  S S S S H
|-----------------|-------------------|----------------|
|-----------------|-------------------|----------------|
|-----------------|-------------------|----------------|
|-----------------|-------------------|-5--5-5-5-5-7---|
|-5-------5-5-5-5-|-8--8-8-5--5-5-5-5-|----------------|
|-----------------|-------------------|----------------|


  H.      E E   H    H      Q  S S S S Q  S S S S
|-------------|-----------|-----------------------|
|-------------|-----------|-----------------------|
|-------------|-----------|-----------------------|
|-7-------7-7-|------5----|-----------------------|
|-------------|-7---------|------------7--7-7-7-7-|
|-------------|-----------|-8--8-8-8-8------------|


  Q  S S S S Q  S S S S   W          H.      Q
|-----------------------|----------|--------------|
|-----------------------|----------|--------------|
|-----------------------|----------|--------------|
|-----------------------|-7--------|--------------|
|-5--5-5-5-5-5--5-5-5-5-|----------|-5-------7----|
|-----------------------|----------|--------------|


  H    Q  Q    H.      Q    Q  S S S S Q  S S S S
|------------|------------|-----------------------|
|------------|------------|-----------------------|
|------------|------------|-----------------------|
|---------5--|-7----------|------------5--5-5-5-5-|
|-8----3-----|---------7--|-8--8-8-8-8------------|
|------------|------------|-----------------------|


  Q  S S S S H      W          W          W
|-----------------|----------|----------|------|
|-----------------|----------|----------|------|
|-----------------|----------|----------|------|
|-7--7-7-7-7------|----------|-5--------|-7----|
|------------5----|-7--------|----------|------|
|-----------------|----------|----------|------|


  +W           Q  H.
|------------|----------*|
|------------|----------*|
|------------|----------*|
|-(7)--------|-7--------*|
|------------|----------*|
|------------|----------*|



Duration Legend
---------------
W - whole; H - half; Q - quarter; E - 8th; S - 16th; T - 32nd; X - 64th; a - acciaccatura
+ - note tied to previous; . - note dotted; .. - note double dotted
Uncapitalized letters represent notes that are staccato (1/2 duration)
Irregular groupings are notated above the duration line
Duration letters will always appear directly above the note/fret number it represents the
duration for.  Duration letters with no fret number below them represent rests.  Multi-
bar rests are notated in the form Wxn, where n is the number of bars to rest for.  Low
melody durations appear below the staff

Tablature Legend
----------------
 h   - hammer-on
 p   - pull-off
 b   - bend
 pb  - pre-bend
 r   - bend release (if no number after the r, then release immediately)
 /\  - slide into or out of (from/to "nowhere")
 s   - legato slide
 S   - shift slide
 - natural harmonic
[n]  - artificial harmonic
n(n) - tapped harmonic
 ~   - vibrato
 tr  - trill
 T   - tap
 TP  - trem. picking
 PM  - palm muting
\n/  - tremolo bar dip; n = amount to dip
 \n  - tremolo bar down
 n/  - tremolo bar up
/n\  - tremolo bar inverted dip
 =   - hold bend; also acts as connecting device for hammers/pulls
 <> - volume swell (louder/softer)
 x   - on rhythm slash represents muted slash
 o   - on rhythm slash represents single note slash

Misc Legend
-----------
 |  - bar
||  - double bar
||o - repeat start
o|| - repeat end
*|  - double bar (ending)
 :  - bar (freetime)
 $  - Segno
 &  - Coda
Tempo markers -  = BPM(8/16=s8/s16), where s8 = swing 8ths, s16 = swing 16ths


            
            
Suggest correction
Creating personal tab
Creating personal tab
You can edit any tab online and save it as your Personal.

You can edit, replace or remove any tab part or add personal notes – all changes will be seen only by you.

Personal tabs can be accessed anytime from any device, even offline.
Learn more »
Give kudos to tab author, rate the tab!
1 2 3 4 5
comments
print report bad tab
1 comment total.
0 reply
hozarth 94 Feb 02, 2009 02:41 PM

Do you have this to play on a bass?
WTF

guest
You may want to rate the tab now too:
select rating
Wanna post a correction for this tab? Suggest correction