Oops, an error
Loading. Please wait.

Leaf And Stream bass

813 views 6 this week
5 commentsread comments
1 2 3 4 5
x 6
add to favorites
×
Save as Personal and add changes to this tab that will be seen only by you. Learn more ›
×
You can save this tab as Personal to edit and correct it or add notes. All changes will be seen only by you. Learn more »
launch autoscroll
font size
0
reset
guitar tuner
edit
Autoscroll
slow
fast
+/-
esc
set tempo
stop
Author
                             Artist - Wishbone Ash
                            ***********************
                            Song - Leaf And Stream
                           ************************
                                 Album - Argus
                                ***************


Intro

[---------7-----------|
[-------7--------7----|
[--5--------5---------|
[------------------5--|

Verse 1
********
Find myself beside a stream of empty thought
[--------------------------------|
[-----7-----7-5------7------7----|
[--5-----5------8-5-----5-5---5--|
[--------------------------------|

Like a leaf that's fallen to the ground
[---------s---5--------|--------5--------|
[--3--3--5\7-----5--3--|--3--7-----5--3--|
[----------------------|-----------------|
[----------------------|-----------------|

And carried by the flow of water to my dreams
[-----7--5----------|----------------|
[--5-------8-7-8-5--|--8-7-5---------|
[-------------------|---------8-7-5--|
[-------------------|----------------|

Woken only by your sound.
[-------------------7----|
[-----7-----7-----7---7--|
[--5-----5-----5---------|
[------------------------|


Verse 2
********
Alone I've walked this path for many years
[------------------|------------7--|
[-----7--5---------|--------5-7----|
[--5--------8-7-5--|--5-7-8--------|
[------------------|---------------|

Listened to the wind that calls my name
                    Quick
[------s---5-----|--5----------|--5------s---5-----|
[--3--5\7-----3--|----8-7-5-3--|-----3--5\7--------|
[----------------|-------------|----------------8--|
[----------------|-------------|-------------------|

The weeping trees of yesterday look so sad
[--------7--5--7--------7-5------|
[--5--------------5--5------8-7--|
[--------------------------------|
[--------------------------------|

Await your breath of spring again.
[------7------7--|-------------|
[----7---7-------|----------5--|
[--5-------5-----|--5-5-7-8----|
[----------------|-------------|


Section 1
***********
Chorus
*******
Far beyond the hills Where earth and sky will meet again
[--12-10-9-7-----12-10-9-7--|
[-------------5-------------|
[---------------------------|
[---------------------------|

Are shadows like an opening hand
[----7---5-9-7-----------------|
[------7--------------------5--|
[--5-----------5----5-5-7-8----|
[------------------------------|

Control the secrets That I've yet to find, and wonder at
[--12-10-9-7----|--12--10-9-7--|
[------------5--|--------------|
[---------------|--------------|
[---------------|--------------|

The light in which they stand.
[---7---5-7---------------|
[-----5-------7--7--7--7--|
[-5-----------------------|
[-------------------------|


[----10-9---7---10-9---7---10-9---7---10-9---7--7--------7-------|
[---------7----------7----------7----------7--------7------7-----|
[--5---------------------------------------------------5------5--|
[----------------------------------------------------------------|


Guitar Solo
************
[-----------------7------------|
[--5-3--2-3-2---7---7-5--------|
[-------------5---------8-7-8--|
[------------------------------|


[---s---5-----|--5----------|--5-----5----|
[--5\7-----3--|----8-7-5-3--|----3-3---3--|
[-------------|-------------|-------------|
[-------------|-------------|-------------|


[--------------------|------------------|
[--5--8-7-5-------5--|--5--8-7-5--------|
[-----------8-7-8----|-----------8-7-8--|
[--------------------|------------------|


[------7--7-----7--|--------------|
[----7------7------|-----------5--|
[--5----------5----|--5-5--7-8----|
[------------------|--------------|


Section 1
**********
[--12-10-9-7-----12-10-9-7--|
[-------------5-------------|
[---------------------------|
[---------------------------|


[----7---5-9-7-----------------|
[------7--------------------5--|
[--5-----------5----5-5-7-8----|
[------------------------------|


[--12-10-9-7----|--12--10-9-7--|
[------------5--|--------------|
[---------------|--------------|
[---------------|--------------|


[---7---5-7---------------|
[-----5-------7--7--7--7--|
[-5-----------------------|
[-------------------------|


[----10-9---7---10-9---7---10-9---7---10-9---7--7--------7-------|
[---------7----------7----------7----------7--------7------7-----|
[--5---------------------------------------------------5------5--|
[----------------------------------------------------------------|


Verse 3
********
                Find myself beside a stream of empty thought
[---------------|-----------------------------|
[--7-----7-7----|--7-----7-5-------7-----7----|
[----5-------5--|-----5------8-7-5---5-5---5--|
[---------------|-----------------------------|

Like a leaf that's fallen to the ground
[-----5-----------|-----5----------|
[--3-----8-7-5-7--|--3----8-7-5-3--|
[-----------------|----------------|
[-----------------|----------------|

And carried by the flow of water to my dreams
[------------7-5--------|---------7-5------|
[--5--7-8-5------8-7-5--|--7-8-5------8-7--|
[-----------------------|------------------|
[-----------------------|------------------|

Woken only by your sound.
[-----7----5---5-7----|-------------|
[-------7----7-----7--|----------5--|
[--5------------------|--5-5-7-8----|
[---------------------|-------------|

Far Beyond The Hills Where earth and sky will meet again
[--12-10-9-7----|--12--10-9-7--|
[------------5--|--------------|
[---------------|--------------|
[---------------|--------------|

Are shadows like an opening hand
[-----7----10-9-7----|-------------|
[-------7---------7--|----------5--|
[--5-----------------|--5-5-7-8----|
[--------------------|-------------|

That I've yet to find, and wonder at The light in which they stand.
[--12-10-9-7----|--12-10-9-7-----7----14---14-14--7--|
[------------5--|------------7-----7-----7-----------|
[---------------|--------------5---------------------|
[---------------|------------------------------------|


Repeat This To Fade
[--10-9---7--|
[-------7----|
[------------|
[------------|

I Usually say repeat Verse or repeat chorus, but he play it different everytime, So 
thats why it is a long tab, But an exellent bass song....Enjoy

            
            
Suggest correction
Creating personal tab
Creating personal tab
You can edit any tab online and save it as your Personal.

You can edit, replace or remove any tab part or add personal notes – all changes will be seen only by you.

Personal tabs can be accessed anytime from any device, even offline.
Learn more »
comments
print report bad tab
5 comments total. Showing first comments.
+1 reply
Oliver_White3 3,786 Jun 11, 2014 01:57 AM

Great Prog Rock band I totally forgot about them!

0 reply
ayreon77 21,833 Jun 11, 2014 04:10 AM

yea they are a great band, all excellent musicians

-2 reply
Damn.Dirty.Grap 10 May 19, 2015 12:35 PM

didn't like this contribution

guest
You may want to rate the tab now too:
select rating
Wanna post a correction for this tab? Suggest correction