Oops, an error
Loading. Please wait.

Throw Down The Sword solo tab

version 3
version 3

Whole song

Interactive

913 views 1 this week
2 commentsread comments
1 2 3 4 5
x 4
add to favorites
×
Save as Personal and add changes to this tab that will be seen only by you. Learn more ›
×
You can save this tab as Personal to edit and correct it or add notes. All changes will be seen only by you. Learn more »
launch autoscroll
font size
0
reset
how to read this tab
guitar tuner
edit
Autoscroll
slow
fast
+/-
esc
set tempo
stop
Author
Difficulty
---------------------------------------------------------------------------------------------------
                                          Artist - Wishbone Ash
                                         ***********************
                                       Song - Throw Down The Sword 
                                      *****************************
                                           Album - Live Dates 
                                          ********************
                                          Tabbed By - Ayreon77
                                         **********************
---------------------------------------------------------------------------------------------------
Tuning = Standard


03:39
     h        h
e|-12-15-12-12-15-15-12----------|---h--p--s---------------|----------------------|
B|----------------------15-13-15-|-13-15-13\12-13----------|----------------------|
G|-------------------------------|----------------14-12-14-|-12---s--------s------|
D|-------------------------------|-------------------------|----14\12-10-12\14-12-|
A|-------------------------------|-------------------------|----------------------|
E|-------------------------------|-------------------------|----------------------|


e|--------------------------------|--b-15-15--b----|----------17--b---b-17-19--b----|
B|-----------------------------13-|-15-------15-15-|-17-18-20----20--20-------20-20-|
G|------------------s---12--14----|----------------|--------------------------------|
D|-10----------10-12\14-----------|----------------|--------------------------------|
A|----12-10-12--------------------|----------------|--------------------------------|
E|--------------------------------|----------------|--------------------------------|
                                                                        04;05
                                                                          b  b  b  b  rb
e|---h----------------------|------------------------------------------|-20-20-20-20-20--17-----b----|
B|-17-20-20--17-20-17--b----|-----b-20-20--rb--------------------------|--------------------20-20-20-|
G|--------------------19-19-|-17-19-------19--17-16-17--16-16-17-19-19-|-----------------------------|
D|--------------------------|------------------------------------------|-----------------------------|
A|--------------------------|------------------------------------------|-----------------------------|
E|--------------------------|------------------------------------------|-----------------------------|

                                                                 rake           p
e|---h------------h--p---------|--------------------------------|----17-19-20-19-17--b-17-|
B|-17-20-20--17-17-20-17-------|-----------b-20--rbp--------s---|---17--------------20----|
G|-----------------------19-17-|-17-19-17-19----19--17-19-17\16-|--17---------------------|
D|-----------------------------|--------------------------------|-x-----------------------|
A|-----------------------------|--------------------------------|-------------------------|
E|-----------------------------|--------------------------------|-------------------------|

04:19
e|-rb----------------|----------------|-------------------------------------------------------------------|
B|-20-17-------------|-17-------------|-17----------------------------------------------------------------|
G|-------20-19-17----|----20-19-17----|----20-19-17----17----------------------------------17----------17-|
D|----------------19-|-------------19-|-------------19-------17---------------------s---17----17-19-19----|
A|-------------------|----------------|-------------------19----17-17-17---h---15-17\19-------------------|
E|-------------------|----------------|----------------------------------15-17----------------------------|

                   04:33
e|----------------|------------------------------|----------------------------|-rake-------------------|
B|--b-20-20--b----|------------------------------|----------------h--p--------|---12-12-13-12-10--b----|
G|-19-------19-19-|-0----------------------------|-----s------9--9-10-9--b----|--12--------------12-12-|
D|----------------|---------------------s------7-|-10-9\10-12-----------12-12-|-12---------------------|
A|----------------|----0-2-3-5-7--7-7--7\10-10---|----------------------------|------------------------|
E|----------------|------------------------------|----------------------------|------------------------|
                      04:48
                          b  b  b  b  rb
e|-------------------|---20-20-20-20-20--17-----b----|---h------------h----b-17-19--b-------h---------h---|
B|-------------------|----------------------20-20-20-|-17-20-20--17-17-20-20-------20-20--17-20-20--17-20-|
G|-9--b-12--br-------|-s-----------------------------|----------------------------------------------------|
D|---12----12--10-12-|-\-----------------------------|----------------------------------------------------|
A|-------------------|-------------------------------|----------------------------------------------------|
E|-------------------|-------------------------------|----------------------------------------------------|

  Trill................................
e|---h--p--h--p---------------------p---------------|---h----b-17-17-|--b-17-17--b-17-17--b-17-17--b-17-17-|
B|-17-20-17-20-17-----------------20-17-------------|-17-20-20-------|-20-------20-------20-------20-------|
G|--------------------------------------20-19-17----|----------------|-------------------------------------|
D|-----------------------------------------------19-|----------------|-------------------------------------|
A|--------------------------------------------------|----------------|-------------------------------------|
E|--------------------------------------------------|----------------|-------------------------------------|

                                                  Trill.........
04:58                                               h  p  h  p      
e|--b-17-17--b-17-17--b-17-17--b-17-17-|--b-17-20-17-20-17-20-17-|
B|-20-------20-------20-------20-------|-20----------------------|
G|-------------------------------------|-------------------------|
D|-------------------------------------|-------------------------|
A|-------------------------------------|-------------------------|
E|-------------------------------------|-------------------------|
 
05:10
    b  b
e|-20-20-20-19-17--b-20-rb----|----------------------------------------|---b-17-19-|
B|----------------20----20-17-|--b-20-rb-------------------------17-20-|-20--------|
G|----------------------------|-19----19-17-16-17-16----16-17-19-------|-----------|
D|----------------------------|----------------------19----------------|-----------|
A|----------------------------|----------------------------------------|-----------|
E|----------------------------|----------------------------------------|-----------|


e|----17-19----17-------------------------------------------------------------------|
B|-20-------20----18-20-17-18----17-------------------------------------------------|
G|----------------------------19----17-19-16-17-14-16-12-14---s--------s------12-14-|
D|----------------------------------------------------------14\12-10-12\14-12-------|
A|----------------------------------------------------------------------------------|
E|----------------------------------------------------------------------------------|


e|-17------------------------------b-----b-----b-|
B|----20-17--------b--------------20----20----20-|
G|----------19-17-19-19-17----17-----------------|
D|-------------------------19--------------------|
A|-----------------------------------------------|
E|-----------------------------------------------|




ENJOY..........

            
            
Suggest correction
Creating personal tab
Creating personal tab
You can edit any tab online and save it as your Personal.

You can edit, replace or remove any tab part or add personal notes – all changes will be seen only by you.

Personal tabs can be accessed anytime from any device, even offline.
Learn more »
comments
print report bad tab
2 comments total.
0 reply
Damn.Dirty.Grap 10 May 19, 2015 12:35 PM

didn't like this contribution

0 reply
ayreon77 21,833 May 19, 2015 01:56 PM, edited on June 30 2017, 08:16 pm

mmmm surprise surprise,

guest
You may want to rate the tab now too:
select rating
Wanna post a correction for this tab? Suggest correction