Oops, an error
Loading. Please wait.

What I Am tab

2,661 views 1 this week
3 commentsread comments
1 2 3 4 5
x 3
add to favorites
×
Save as Personal and add changes to this tab that will be seen only by you. Learn more ›
×
You can save this tab as Personal to edit and correct it or add notes. All changes will be seen only by you. Learn more »
launch autoscroll
font size
0
reset
how to read this tab
guitar tuner
edit
Autoscroll
slow
fast
+/-
esc
set tempo
stop
Hello to all you people who are into WITCHCRAFT
Once again I've unleashed the powers of my Witchcraft songbook.
We are going a bit emotional this time with the wonderful awesome song "What I Am" it's 
and it rocks.

What I Am
Witchcraft
Witchcraft 2004
Words & Music: Magnus Pelander

Tabbed by Mads Yde aka Ridder Lugtepik
Enjoy and please rate


Here's the riffs, for structure see bottom of the page.

Intro/Main Riff
E----------------------|-------------------------|
B----------------------|-------------------------|
G--------------9h10p9--|--------------9h10-------|
D-10h12--12-12---------|-10h12--12-12------10----|
A----------------------|----------------------12-|
E----------------------|-------------------------|


Verse  riff 1
E-5--5-5--5-------|
B-6--6-6--6-------|
G-7--7-7--7-------|
D-7--7-7--7-------|
A-5--5-5--5-----3-|
E-----------3h5---|

Verse riff 2
E---------------|----------------|
B---------------|----------------|
G---------------|----------------|
D-8--8-8--8-7-8-|-8--8-8--8-7-10-|
A-8--8-8--8-7-8-|-8--8-8--8-7-10-|
E-6--6-6--6-5-6-|-6--6-6--6-5-8--|


Pre-chorus
E----------------|-------------------|
B----------------|-------------------|
G-7-77--10-1010--|-12-1212--14-1414--|
D-7-77--10-1010--|-12-1212--14-1414--|
A-5-55--8--8-8---|-10-1010--12-1212--|
E----------------|-------------------|

Chorus
E-----------------|-----------------|-----------------|------------------|
B-----------------|-----------------|-----------------|------------------|
G-----------------|-----------------|-----------------|------------------|
D-7-7-7-7-7-7-7-7-|-7-7-7-7-7-7-7-7-|-8-8-8-8-8-8-8-8-|-8----------------|
A-7-7-7-7-7-7-7-7-|-7-7-7-7-7-7-7-7-|-8-8-8-8-8-8-8-8-|-8----------------|
E-5-5-5-5-5-5-5-5-|-5-5-5-5-5-5-5-5-|-6-6-6-6-6-6-6-6-|-6----------------|


Bridge/solo 2 backing
E-------------|-------------|------------|------------|------------|
B-------------|-------------|------------|------------|------------|
G-------------|-------55-55-|-55-77-77-5-|-77-77-5-77-|-77-5-77-77-|
D-33-33-55-55-|-77-77-55-55-|-55-77-77-5-|-77-77-5-77-|-77-5-77-77-|
A-33-33-55-55-|-77-77-33-33-|-33-55-55-3-|-55-55-3-55-|-55-3-55-55-|
E-11-11-33-33-|-55-55-------|------------|------------|------------|
  *third time around the first two bars are played as triplets

Riff 7
E---------------|---------------|
B---------------|---------------|
G---------------|---------------|
D---------------|---------------|
A-12-10-8-7-8-7-|-12-10-8-7-5---|
E---------------|-------------8-|

End
E-5----------------|
B-6----------------|
G-7----------------|
D-7----------------|
A-5----------------|
E------------------|

Structure
Main riff x2
Verse riff 1 x5
Verse riff 2 x2
Verse riff 1 x3
Verse riff 2 x2
Pre chorus x1
Chorus x1
Verse riff 1 x5
Verse riff 2 x2
Verse riff 1 x3
Verse riff 2 x2
Pre chorus x1
Chorus x1
Verse riff 1 x3 GUITAR SOLO
Verse riff 2 x1   --||--|
Verse riff 1 x3   --||--|
Verse riff 2 x1   --||--|
Verse riff 1 x3   --||--|
Verse riff 2 x1   --||--|
Bridge/solo backing x 3 Theres a guitar solo midway through
Riff 7 x1
Main riff x2
Verse riff 1 x5
Verse riff 2 x1
End x1


Tabbed by Mads Yde aka Ridder Lugtepik
Enjoy and please rate

            
            
Suggest correction
Creating personal tab
Creating personal tab
You can edit any tab online and save it as your Personal.

You can edit, replace or remove any tab part or add personal notes – all changes will be seen only by you.

Personal tabs can be accessed anytime from any device, even offline.
Learn more »
Give kudos to tab author, rate the tab!
1 2 3 4 5
comments
print report bad tab
3 comments total.
0 reply
TVeye 60 Feb 26, 2013 03:17 PM

Will check this one out but, can you crack open that songbook and do Remembered (with tuning?)
Thanx,

0 reply
Ridder Lugtepik 462 Mar 09, 2013 08:40 AM

lol, sadly I have no idea how to play Remembered... I could probably worked it out, but I am too lazy to figure out the intro... but as for the tuning, all Witchcraft songs are in standard or close to standard... at least on the first three albums... I don't know if they chose to tune down on the one.

0 reply
Ridder Lugtepik 462 Mar 09, 2013 08:41 AM

why can't you edit your posts... I gotta proof read more often...

guest
You may want to rate the tab now too:
select rating
Wanna post a correction for this tab? Suggest correction