Oops, an error
Loading. Please wait.

Drive tab

124 views 3 this week
no commentswrite comment
1 2 3 4 5
3 more votes to show rating
add to favorites
×
Save as Personal and add changes to this tab that will be seen only by you. Learn more ›
×
You can save this tab as Personal to edit and correct it or add notes. All changes will be seen only by you. Learn more »
launch autoscroll
font size
0
reset
how to read this tab
guitar tuner
edit
Autoscroll
slow
fast
+/-
esc
set tempo
stop
-----------------------------------------------------------------------------
                           DRIVE - With Confidence
-----------------------------------------------------------------------------
Tuning: Drop D (DADGBe)

Guitar 1 - Luke Rockets
Guitar 2 - Inigo Del Carmen

Check out my guitar cover on YouTube!: https://www.youtube.com/watch?v=TFNB9GjVIA8

[Intro/Verse] (starts with guitar 2)

Guitar 2
e|-6--x10-3-3-6-6-3-3-6----------------------------------------------|
B|-4------4-4-4-4-4-4-4----------------------------------------------|
G|-------------------------------------------------------------------|
D|-------------------------------------------------------------------|
A|-------------------------------------------------------------------|
D|-------------------------------------------------------------------|

Guitar 1
e|---------------------------------------------------------------------------------------------------|
B|---------------------------------------------------------------------------------------------------|
G|-----------8~---8~-8~-8~-----------5~---5~-5~-5~-----------8~---8~-8~-8~-12~-x-10~-x-8~---8~-8~-8~-|
D|-6~-x-8~-x-8~---8~-8~-8~-6~-x-8~-x-5~---5~-5~-5~-6~-x-8~-x-8~---8~-8~-8~-12~-x-10~-x-8~---8~-8~-8~-|
A|-6~-x-8~-x-6~---6~-6~-6~-6~-x-8~-x-3~---3~-3~-3~-6~-x-8~-x-6~---6~-6~-6~-10--x-8~--x-6~---6~-6~-6~-|
D|-6~-x-8~-x---------------6~-x-8~-x---------------6~-x-8~-x-----------------------------------------|

Guitar 2
e|-6--x10-3-3-6-6-3-3-|-4-4-4-1-1-1----------------|
B|-4------4-4-4-4-4-4-|-4-4-4-1-1-1-4--------------|
G|--------------------|-------------3--x8----------|
D|--------------------|----------------------------|
A|--------------------|----------------------------|
D|-----------------3x-|----------------------------|

Guitar 1 (quiet, light distortion)
e|-----------------------------------------------------------------------------------------------------|
B|-----------------------------------------------------------------------------------------------------|
G|-----------8~--------------5~---------------8~----12~-x-10~-x-8~------------------7~-----10-10-10~~~-|
D|-6~-x-8~-x-8~----6~-x-8~-x-5~-----6~-x-8~-x-8~----12~-x-10~-x-8~---(pause)------------x4-------------|
A|-6~-x-8~-x-6~----6~-x-8~-x-3~-----6~-x-8~-x-6~----10--x-8~--x-6~-----------8--x16-5~-----8--8--8~~~~-|
D|-6~-x-8~-x-------6~-x-8~-x--------6~-x-8~-x--------------------------------8-------------------------|
                                                                             *
Guitar 2 (light distortion)
e|----------------------1~-x-3~-1/3~-3p1------------------------------------6----6~------|
B|-----------------4~-x------------------4~-----4~-x-3~-x-8~---8p6~----6-8~---8~----8~---|
G|------------------------------------------------------------------8~-------------------|
D|---------------------------------------------------------------------------------------|
A|---------------------------------------------------------------------------------------|
D|---------------------------------------------------------------------------------------|

e|-------------------------------------------------------------------------------------------------------|
B|-------------4~-------------------------------------4~---------------8~--------------------------------|
G|-------------3~--------------3----------------------3~--------8h10~--10b12~----10~-----8--x8-7-7-7-7~\-|
D|-----1h3/5~-----------1h3/5~---5~-3~\------1h3/5~--------8h10------------------------------------------|
A|-1h3--------------1h3------------------1h3-------------------------------------------------------------|
D|-------------------------------------------------------------------------------------------------------|

[Chorus 1]

Guitar 1
e|----------------------------------------------------------------------------------------------------|
B|----------------------------------------------------------------------------------------------------|
G|-----------8~---8~-8~-8~-----------5~---5~-5---5~-----------8~---8~-8~-8~-12~-x-10~-x-8~---8~-8~-8~-|
D|-6~-x-8~-x-8~---8~-8~-8~-6~-x-8~-x-5~---5~-5---5~-6~-x-8~-x-8~---8~-8~-8~-12~-x-10~-x-8~---8~-8~-8~-|
A|-6~-x-8~-x-6~---6~-6~-6~-6~-x-8~-x-3~---3~-3---3~-6~-x-8~-x-6~---6~-6~-6~-10--x-8~--x-6~---6~-6~-6~-|
D|-6~-x-8~-x---------------6~-x-8~-x----------------6~-x-8~-x-----------------------------------------|

Guitar 2
e|-------------------------------------------------------------------|
B|-----------8~--------------4~--------------8~----------------------|
G|-8~---10~--8~----8~---10~--5~----8~---10~--8~------12~---10~---8~--|
D|-6~---8~---8~----6~---8~---5~----6~---8~---8~------12~---10~---8~--|
A|-6~---8~---6~----6~---8~---3~----6~---8~---6~------10----8~----6~--|
D|-6~---8~---------6~---8~---------6~---8~---------------------------|

[Re-Intro]

Guitar 1
e|----------------------------------------------------------------------------------------------------|
B|----------------------------------------------------------------------------------------------------|
G|-----------8~---8~-8~-8~-----------5~---5~-5---5~-----------8~---8~-8~-8~-12~-x-10~-x-8~---8~-8~-8~-|
D|-6~-x-8~-x-8~---8~-8~-8~-6~-x-8~-x-5~---5~-5---5~-6~-x-8~-x-8~---8~-8~-8~-12~-x-10~-x-8~---8~-8~-8~-|
A|-6~-x-8~-x-6~---6~-6~-6~-6~-x-8~-x-3~---3~-3---3~-6~-x-8~-x-6~---6~-6~-6~-10--x-8~--x-6~---6~-6~-6~-|
D|-6~-x-8~-x---------------6~-x-8~-x----------------6~-x-8~-x-----------------------------------------|

Guitar 2
e|-6--x10-3-3-6-6-3-3-6--x10-3-3-4--3~-6--x10-3-3-6-6-3-3-4-4-4-1-1-1-------------------|
B|-4------4-4-4-4-4-4-4------4-4-4--4~-4------4-4-4-4-4-4-4-4-4-1-1-1-4-----------------|
G|--------------------------------------------------------------------3-x8--------------|
D|--------------------------------------------------------------------------------------|
A|--------------------------------------------------------------------------------------|
D|--------------------------------------------------------------------------------------|

[Verse 2]

Guitar 1
e|---------------------------------|---------------------------1./2.-|-------------------------3.-||
B|---------------------------------|---------------------------------|-----------4~--4~--4~--4~-4-||
G|-5---5---7---8---3---3---3---5---|-5---5---7---8---8---8---8---8---|-----------3~--3~--3~--3~-3-||
D|---6---6---6---6---5---5---5---5-|---6---6---6---6---6---6---6---6-|--(pause)--1~--1~--1~--1~-1-||
A|---------------------------------|---------------------------------|-----------1~--1~--1~--1~-1-||
D|---------------------------------|------------------------------2x-|-----------1~--1~--1~--1~-1-||
     *   *   *   *   *   *   *   *     *   *   *   *   *   *   *   *
Guitar 2
e|---------------6~~---6~-------------------------------------------------------------------------|
B|-8-------8--------8~----8~------------------8--------------6~-----------8~~~--------------------|
G|-----8~~~~~-8~~~~------------8~~~~~~~~~~~~~---8~~~~~~~~~~~~~~-8~~~~~~-8-------------------------|
D|-------------------------------------------------------------------------------1~--1~--1~--1~-1-|
A|-------------------------------------------------------------------------------1~--1~--1~--1~-1-|
D|-------------------------------------------------------------------------------1~--1~--1~--1~-1-|


[Chorus 2]

Guitar 1, 2x
e|----------------------------------------------------------------------------------------------------|
B|----------------------------------------------------------------------------------------------------|
G|-----------8~---8~-8~-8~-----------5~---5~-5---5~-----------8~---8~-8~-8~-12~-x-10~-x-8~---8~-8~-8~-|
D|-6~-x-8~-x-8~---8~-8~-8~-6~-x-8~-x-5~---5~-5---5~-6~-x-8~-x-8~---8~-8~-8~-12~-x-10~-x-8~---8~-8~-8~-|
A|-6~-x-8~-x-6~---6~-6~-6~-6~-x-8~-x-3~---3~-3---3~-6~-x-8~-x-6~---6~-6~-6~-10--x-8~--x-6~---6~-6~-6~-|
D|-6~-x-8~-x---------------6~-x-8~-x----------------6~-x-8~-x-----------------------------------------|

Guitar 2
e|-------------------------------------------------------------------|
B|-----------8~--------------4~--------------8~----------------------|
G|-8~---10~--8~----8~---10~--5~----8~---10~--8~------12~---10~---8~--|
D|-6~---8~---8~----6~---8~---5~----6~---8~---8~------12~---10~---8~--|
A|-6~---8~---6~----6~---8~---3~----6~---8~---6~------10----8~----6~--|
D|-6~---8~---------6~---8~---------6~---8~---------------------------|

e|------4p3h4p3------6p3~---3~--3~------4p3h4p3-------6p3~---3~------|
B|-4~~~---------4~-----------------4~~~---------4~---------------4~--|
G|-6b8~----------------------------6b8~------------------------------|
D|-------------------------------------------------------------------|
A|-------------------------------------------------------------------|
D|----------------------------------------------------------------2x-|

[Bridge]

Guitar 1
e|-------------------------------------------------------------------|
B|-------------------------------------------------------------------|
G|---------------------------------8~-----------------3~-------------|
D|-3~-------------6~-----8~--------8~------(silence)--1~--(fades in)-|
A|-3~-------------6~-----8~--------6~-----------------1~-------------|
D|-3~-------------6~-----8~---------------------------1~-------------|

e|----------------------------------------------------------------------------------------------------|
B|----------------------------------------------------------------------------------------------------|
G|-----------8~---8~-8~-8~-----------5~---5~-5---5~-----------8~---8~-8~-8~-12~-x-10~-x-8~---8~-8~-8~-|
D|-6~-x-8~-x-8~---8~-8~-8~-6~-x-8~-x-5~---5~-5---5~-6~-x-8~-x-8~---8~-8~-8~-12~-x-10~-x-8~---8~-8~-8~-|
A|-6~-x-8~-x-6~---6~-6~-6~-6~-x-8~-x-3~---3~-3---3~-6~-x-8~-x-6~---6~-6~-6~-10--x-8~--x-6~---6~-6~-6~-|
D|-6~-x-8~-x---------------6~-x-8~-x----------------6~-x-8~-x-----------------------------------------|

Guitar 2                                         SOLO:
e|-8~-------8~---------------------------------------|-8~~----|----------------|-8~----|-8~----------------|
B|-11b13~---11b13-11~---8~~~-11----------------------|-11b13~-|-11p8-11~--11-8-|-11b13-|-11b13r------------|
G|----------------------10b12~~~~--8~\----(silence)--|--------|----------------|-------|--------12-10~-10~-|
D|---------------------------------------------------|--------|----------------|-------|-------------------|
A|---------------------------------------------------|--------|----------------|-------|-------------------|
D|---------------------------------------------------|-----3x-|----------------|----4x-|-------------------|

e|-----------8h11-8~-8\6h8~--8p6---------------8h11-8~-8\6h8~-6~\----|
B|------8h11---------------------8p6------8h11----------------6~\----|
G|-8h10------------------------------8h10----------------------------|
D|-------------------------------------------------------------------|
A|-------------------------------------------------------------------|
D|-------------------------------------------------------------------|

[Final Chorus]

Guitar 1
e|----------------------------------------------------------------------------------------------------|
B|----------------------------------------------------------------------------------------------------|
G|-----------8~---8~-8~-8~-----------5~---5~-5---5~-----------8~---8~-8~-8~-12~-x-10~-x-8~---8~-8~-8~-|
D|-6~-x-8~-x-8~---8~-8~-8~-6~-x-8~-x-5~---5~-5---5~-6~-x-8~-x-8~---8~-8~-8~-12~-x-10~-x-8~---8~-8~-8~-|
A|-6~-x-8~-x-6~---6~-6~-6~-6~-x-8~-x-3~---3~-3---3~-6~-x-8~-x-6~---6~-6~-6~-10--x-8~--x-6~---6~-6~-6~-|
D|-6~-x-8~-x---------------6~-x-8~-x----------------6~-x-8~-x-----------------------------------------|

Guitar 2
e|-6-x10-3-3-6-6-3-3-6-x10-3-3-4~-3~-6-x10-3-3-6-6-3-3-4-4-4-1-1-1------------------------------------------|
B|-4-----4-4-4-4-4-4-4-----4-4-4~-4~-4-----4-4-4-4-4-4-4-4-4-1-1-1-4-------8-9p8--11p8--9p8h9p8---8h9p8h9p8-|
G|-----------------------------------------------------------------3-x8-8~----------------------8-----------|
D|----------------------------------------------------------------------------------------------------------|
A|----------------------------------------------------------------------------------------------------------|
D|----------------------------------------------------------------------------------------------------------|

Guitar 1
e|------------------------------------------------------------------------------------------|
B|------------------------------------------------------------------------------------------|
G|-----------8~---8~-8~-8~-----------5~---5~-5----------------8~---8~-8~-8~-12~-x-7~-x-8~---|
D|-6~-x-8~-x-8~---8~-8~-8~-6~-x-8~-x-5~---5~-5------6~-x-8~-x-8~---8~-8~-8~-12~-x-8~-x-8~---|
A|-6~-x-8~-x-6~---6~-6~-6~-6~-x-8~-x-3~---3~-3------6~-x-8~-x-6~---6~-6~-6~-10--x-5~-x-6~---|
D|-6~-x-8~-x---------------6~-x-8~-x----------------6~-x-8~-x-------------------------------|

Guitar 2
e|--------------------------------------------------6--x10-3-3-6-6-3-3-4-4-4-------6~-------|
B|----8-9p8--11p8--9p8h9p8---8h9p8h9p8h9p8-11p8-9---4------4-4-4-4-4-4-4-4-4-6-6-6-4~-------|
G|-8~----------------------8-------------------------------------------------3-3-3----------|
D|------------------------------------------------------------------------------------------|
A|------------------------------------------------------------------------------------------|
D|------------------------------------------------------------------------------------------|
__________________________________________________________
x - mute note 
h - hammer on
p - pull of
/ or \ - slide from/to a note
b - bend note
~ - let note ring
* - pull off

            
            
Suggest correction
Creating personal tab
Creating personal tab
You can edit any tab online and save it as your Personal.

You can edit, replace or remove any tab part or add personal notes – all changes will be seen only by you.

Personal tabs can be accessed anytime from any device, even offline.
Learn more »
Give kudos to tab author, rate the tab!
1 2 3 4 5
comments
print report bad tab
guest
You may want to rate the tab now too:
select rating
Wanna post a correction for this tab? Suggest correction