Oops, an error
Loading. Please wait.

Godzilla tab

version 1
version 1

Whole song

2,843 views 18 this week
1 commentread comment
1 2 3 4 5
x 8
add to favorites
×
Save as Personal and add changes to this tab that will be seen only by you. Learn more ›
×
You can save this tab as Personal to edit and correct it or add notes. All changes will be seen only by you. Learn more »
launch autoscroll
font size
0
reset
how to read this tab
guitar tuner
edit
Autoscroll
slow
fast
+/-
esc
set tempo
stop
Author
Difficulty
=============================================================================
                        GODZILLA - WITH CONFIDENCE
=============================================================================
Tabbed by: jhb31415
Interpretation, not completely accurate

| h   Hammer-on
| p   Pull-off
| x   Dead note
| PM  Palm mute
| =   Play until the next bar
| *   Hold note
| ()  Guitar 2
| \   Slide down

[Verse]


  PM-------------------------------------------------------------------------
e|---------------------------------------------------------------------------|
B|---------------------------------------------------------------------------|
G|-----9-----------------------9-----------------------9---------------------|
D|-----9-----------7-----------9-----------7-----------9---------------------|
A|-----7--(x16)----7-----------7--(16x)----7-----------7--(16x)--------------|
E|-----------------5--(16x)----------------5--(16x)--------------------------|


  PM--------------------------------------------------
e|---------------------------------------------------------------------------|
B|---------------------------------------------------------------------------|
G|-----------------------------9---------------------------------------------|
D|-----7----------6666--66-----9-----------7----------6666--666--------------|
A|-----7----------7777--66-----7--(16x)----5----------7777--666--------------|
E|-----5--(10x)---5555--55-----------------5--(10x)---5555--555--------------|

[Interlude]


e|---------------------------------------------------------------------------|
B|-------------------------------------------------(55557777--)--------------|
G|-----9-----------------------9-------------------(--------6*)--------------|
D|-----9-----------7-----------9-----------7777777777777777------------------|
A|-----7--(16x)----7-----------7--(16x)----7777777777777777------------------|
E|-----------------5--(16x)----------------5555555555555555------------------|

[Verse]


e|---------------------------------------------------------------------------|
B|---------------------------------------------------------------------------|
G|-----9---------------------------------------------------------------------|
D|-----7-----------7----------6666--666--------------------------------------|   x4
A|-----7--(16x)----7----------7777--666--------------------------------------|
E|-----------------5--(10x)---5555--555--------------------------------------|


On the third repeat of the verse, play this for Guitar 2
e|-------7---7---7---7---7---7---7---7---9---9---9---9---9---9---9---9-------|
B|-----9---9---9---9---9---9---9---9---9---9---9---9---9---9---9---9---------|
G|---------------------------------------------------------------------------|
D|---------------------------------------------------------------------------|
A|---------------------------------------------------------------------------|
E|---------------------------------------------------------------------------|


[1st Chorus]

e|---------------------------------------------------------------------------|
B|---------------------------------------------------------------------------|
G|-----9---------------------------------------------------------------------|
D|-----9-----------7-----------4-----------7---------------------------------|   x2
A|-----7--(16x)----7-----------4-----------7---------------------------------|
E|-----------------5--(16x)----2--(16x)----5--(16x)--------------------------|

[Bridge]
                                             [begin to open up near the end of the 2nd A power chord group]
                                               PM--------------------------------------
e|---------------------------------------------------------------------------------------------------|
B|--9---------------------2*-------------------------------------------------------------------------|
G|--9---------6*----------x-----------6*--------------------------------------------------------xxxx-|
D|--9---------7*----------4*----------7*----------2-----------7-----------4-----------7---------xxxx-|
A|--7---------7*----------4*----------7*----------2-----------7-----------4-----------7---------xxxx-|
E|------------5*----------2*----------5*----------0--(16x)----5--(16x)----2--(16x)----5--(16x)--xxxx-|

[2nd Chorus]


e|---------------------------------------------------------------------------|
B|---------------------------------------------------------------------------|
G|-----9----------------------(22222222222222446666666666666666)-------------|
D|-----9-----------7-----------44444444444444447777777777777777--------------|
A|-----7-----------5-----------44444444444444447777777777777777--------------|
E|-----0--(16x)----5--(16x)----22222222222222225555555555555555--------------|



e|----(12-12-12-14-14-14-12-12-12-12-12-14-14-14-16-16)|--(12-12-12-14-14-14-12-12-12-12-12-16-16-16-16)|
B|----12=----------------------------------------------|------------------------------------------------|
G|-----9=----------------------------------------------|---9=-------------------------------------------|
D|-----9=----------------------------------------------|---7=-------------------------------------------|
A|-----7=----------------------------------------------|---7=-------------------------------------------|
E|-----0=----------------------------------------------|---5=-------------------------------------------|


e|-----------------------------------------------------|--(12-12-12-11-11-12-12-14-14-14-16-16-16-16-16)|
B|----(10-10-10-10-10-10-10-10-10-10-10-10-10-10-10-10)|------------------------------------------------|
G|-----6=----------------------------------------------|---9=-------------------------------------------|
D|-----4=----------------------------------------------|---7=-------------------------------------------|
A|-----4=----------------------------------------------|---7=-------------------------------------------|
E|-----2=----------------------------------------------|---5=-------------------------------------------|


            
            
Suggest correction
Creating personal tab
Creating personal tab
You can edit any tab online and save it as your Personal.

You can edit, replace or remove any tab part or add personal notes – all changes will be seen only by you.

Personal tabs can be accessed anytime from any device, even offline.
Learn more »
comments
print report bad tab
1 comment total.
+2 reply
SofiaTheIdea 54 Jan 22, 2017 02:19 PM

this is great :OOO thanks!!

guest
You may want to rate the tab now too:
select rating
Wanna post a correction for this tab? Suggest correction