Oops, an error
Loading. Please wait.

Tonight tab

version 2
version 2

Whole song

55 views 6 this week
no commentswrite comment
1 2 3 4 5
3 more votes to show rating
add to favorites
×
Save as Personal and add changes to this tab that will be seen only by you. Learn more ›
×
You can save this tab as Personal to edit and correct it or add notes. All changes will be seen only by you. Learn more »
launch autoscroll
font size
0
reset
how to read this tab
guitar tuner
edit
Autoscroll
slow
fast
+/-
esc
set tempo
stop
Tuning: Drop D (DADGBe)

Link to my cover on YouTube!: https://www.youtube.com/watch?v=kOFq2yPJ32I
(Guitar 1) - Inigo Del Carmen
(Guitar 2) - Luke Rockets

[Intro]
(Guitar 1)
e|-13p10-10-10-13p10-10-10-------------------------|-13p10-10-10-13p10-10-10---------------------|
B|-------------------------13p11-11-11-13h15-15-15-|-------------------------13p11-11-11-11-11~\-|
G|-------------------------------------------------|---------------------------------------------|
D|-------------------------------------------------|---------------------------------------------|
A|-------------------------------------------------|---------------------------------------------|
D|----------------------------------------------3x-|---------------------------------------------|

(Guitar 2)
e|----------------------------4x-|-----------------------------------|
B|-------------------------------|-----------------------------------|
G|--------7~-7-7~--------8~-8-8~-|-----------------------------------|
D|-8~-8~--7~-7-7~-5~-5~--8~-8-8~-|-8~--------------------------------|
A|-8~-8~--5~-5-5~-5~-5~--6~-6-6~-|-8~--------------------------------|
D|-8~-8~----------5~-5~----------|-8~--------------------------------|

[Verse 1] 
(0:36)
(Guitar 1)
e|------------------------------------------------------------------------------------------------------|
B|------------------------------------------------------------------------------------------------------|
G|-------7h10-------7h10---7h10--------7h10--------7h10---7h10-0-0-0-7h10-0-0-0-7h10-0-7h10-5~-7~-5~-3~-|
D|-8-8-8------8-8-10-----8-----10-10-10----10-10-10----10-----------------------------------------------|
A|------------------------------------------------------------------------------------------------------|
D|------------------------------------------------------------------------------------------------------|

(Guitar 2)
e|-------------------------------------------------------------------|
B|-------------------------------------------------------------------|
G|-------------------------------------------------------------------|
D|-------------------------------------------------------------------|
A|-1--x16-3--x16--------6--x16---------------------------------------|
D|---------------5--x16----------------------------------------------|
   *      *      *      *

[Pre-Chorus]
(Guitar 1)
e|-------------------------------------------------------------------|
B|-----------------------------6-------6~-----/8-6~-----6~-----------|
G|--------------------------5~-----5h7--------------5h7~~~-----------|
D|-------------------------------------------------------------------|
A|-------------------------------------------------------------------|
D|-------------------------------------------------------------------|

(Guitar 2)
e|-------------------------------------------------------------------|
B|-------------------------------------------------------------------|
G|-5~--x------------5~--x-----------10-------------------------------|
D|-5~--x-8~---------5~--x-8~-----------x8----------------------------|
A|-3~--x-6~---------3~--x-6~--------8--------------------------------|
D|-------------------------------------------------------------------|

[Chorus]
(Guitar 1)
e|----------------------------4x-|
B|-------------------------------|
G|--------7~-7-7~--------8~-8-8~-|
D|-8~-8~--7~-7-7~-5~-5~--8~-8-8~-|
A|-8~-8~--5~-5-5~-5~-5~--6~-6-6~-|
D|-8~-8~----------5~-5~----------|

(Guitar 2)
e|-13--13--13--13-----------------4x-|
B|---11--11--11--11-11--11--11--11---|
G|--------------------12--12--12--12-|
D|-----------------------------------|
A|-----------------------------------|
D|-----------------------------------|

[Re-Intro]
(Guitar 1)
e|-13p10-10-10-13p10-10-10-------------------------|-13p10-10-10-13p10-10-10---------------------|
B|-------------------------13p11-11-11-13h15-15-15-|-------------------------13p11-11-11-11-11~\-|
G|-------------------------------------------------|---------------------------------------------|
D|-------------------------------------------------|---------------------------------------------|
A|-------------------------------------------------|---------------------------------------------|
D|----------------------------------------------3x-|---------------------------------------------|

(Guitar 2)
e|----------------------------4x-|--------------------------------|
B|-------------------------------|--------------------------------|
G|--------7~-7-7~--------8~-8-8~-|--------------------------------|
D|-8~-8~--7~-7-7~-5~-5~--8~-8-8~-|--------------------------------|
A|-8~-8~--5~-5-5~-5~-5~--6~-6-6~-|--------------------------------|
D|-8~-8~----------5~-5~----------|--------------------------------|

[Verse 2]
(Guitar 1) - comes in on the second time guitar 2 plays
e|------------------------------------------------------------------------------------------------------|
B|------------------------------------------------------------------------------------------------------|
G|-------7h10-------7h10---7h10--------7h10--------7h10---7h10-0-0-0-7h10-0-0-0-7h10-0-7h10-5~-7~-5~-3~-|
D|-8-8-8------8-8-10-----8-----10-10-10----10-10-10----10-----------------------------------------------|
A|------------------------------------------------------------------------------------------------------|
D|------------------------------------------------------------------------------------------------------|

(Guitar 2), 2x
e|-------------------------------------------------------------------|
B|-------------------------------------------------------------------|
G|-------------------------------------------------------------------|
D|-------------------------------------------------------------------|
A|-1--x16-3--x16--------6--x16---------------------------------------|
D|---------------5--x16----------------------------------------------|
   *      *      *      *

[Pre-Chorus]
(Guitar 1)
e|-------------------------------------------------------------------|
B|-----------------------------6-------6~-----/8-6~-----6~-----------|
G|--------------------------5~-----5h7--------------5h7~~~-----------|
D|-------------------------------------------------------------------|
A|-------------------------------------------------------------------|
D|-------------------------------------------------------------------|

(Guitar 2)
e|-------------------------------------------------------------------|
B|-------------------------------------------------------------------|
G|-5~--x------------5~--x-----------10-------------------------------|
D|-5~--x-8~---------5~--x-8~-----------x8----------------------------|
A|-3~--x-6~---------3~--x-6~--------8--------------------------------|
D|-------------------------------------------------------------------|

[Chorus]
(Guitar 1)
e|----------------------------4x-|
B|-------------------------------|
G|--------7~-7-7~--------8~-8-8~-|
D|-8~-8~--7~-7-7~-5~-5~--8~-8-8~-|
A|-8~-8~--5~-5-5~-5~-5~--6~-6-6~-|
D|-8~-8~----------5~-5~----------|

(Guitar 2)
e|-13--13--13--13-----------------4x-|
B|---11--11--11--11-11--11--11--11---|
G|--------------------12--12--12--12-|
D|-----------------------------------|
A|-----------------------------------|
D|-----------------------------------|

[Bridge]
(Guitar 1)
e|-13--13--13--13--10--10--10--10---||-13p10-10-10-13p10-10-10-----13~-13p10-10-10-13p10-10-10\8h10-8~-|
B|---11--11--11--11--11--11--11--11-||------------------------11h13------------------------------------|
G|----------------------------------||-----------------------------------------------------------------|
D|----------------------------------||-----------------------------------------------------------------|
A|----------------------------------||-----------------------------------------------------------------|
D|------------------------------4x--||-----------------------------------------------------------------|

e|-/15~-18--------|-/15~-18-------------||-15~-------------------------------------|
B|-/16~-20--1818~-|-/16~-20---15h16-18~-||-15~----------------------------------.--|
G|----------1717~-|-----------15h17-19~-||-15~----------10~----------(silence)--10-|
D|----------------|---------------------||-----------------------------------------|
A|----------------|---------------------||--------------8~----------------------8--|
D|-------------1.-|------------------2.-||-----------------------------------------|

(Guitar 2)
e|---------------------------|-------------------------||--------------------------|
B|---------------------------|-------------------------||--------------------------|
G|-5-------------------------|-5-----------------------||-3~----------(silence)----|
D|-5--x8-1-----5-----x-3-----|-5--x8-1-----5-----3-----||------------------------.-|
A|-3-----1--x8-5--x8-x-3--x7-|-3-----1--x8-5--x8-3--x8-||-1~---------------------3-|
D|-------1-----5-----x-3-----|-------1-----5-----3-----||-1~---------------------3-|

[Chorus]
(Guitar 1)
e|----------------------------4x-|
B|-------------------------------|
G|--------7~-7-7~--------8~-8-8~-|
D|-8~-8~--7~-7-7~-5~-5~--8~-8-8~-|
A|-8~-8~--5~-5-5~-5~-5~--6~-6-6~-|
D|-8~-8~----------5~-5~----------|

(Guitar 2)
e|-13--13--13--13-----------------4x-|
B|---11--11--11--11-11--11--11--11---|
G|--------------------12--12--12--12-|
D|-----------------------------------|
A|-----------------------------------|
D|-----------------------------------|

[Outro]
(Guitar 1)
e|-13p10-10-10-13p10-10-10-------------------------|-13p10-10-10-13p10-10-10---------------------|
B|-------------------------13p11-11-11-13h15-15-15-|-------------------------13p11-11-11-11-11~\-|
G|-------------------------------------------------|---------------------------------------------|
D|-------------------------------------------------|---------------------------------------------|
A|-------------------------------------------------|---------------------------------------------|
D|----------------------------------------------3x-|---------------------------------------------|

(Guitar 2)
e|----------------------------4x-|----------------------------------|
B|-------------------------------|----------------------------------|
G|--------7~-7-7~--------8~-8-8~-|----------------------------------|
D|-8~-8~--7~-7-7~-5~-5~--8~-8-8~-|-8--------------------------------|
A|-8~-8~--5~-5-5~-5~-5~--6~-6-6~-|-8--------------------------------|
D|-8~-8~----------5~-5~----------|-8--------------------------------|



************************************

| p  Pull-off
| h  Hammer-on
| x  Dead note
| ~  Vibrato
| /  Slide up
| \  Slide down
| (silence) 
| .  
| ~\ 

************************************

            
            
Suggest correction
Creating personal tab
Creating personal tab
You can edit any tab online and save it as your Personal.

You can edit, replace or remove any tab part or add personal notes – all changes will be seen only by you.

Personal tabs can be accessed anytime from any device, even offline.
Learn more »
Give kudos to tab author, rate the tab!
1 2 3 4 5
comments
print report bad tab
guest
You may want to rate the tab now too:
select rating
Wanna post a correction for this tab? Suggest correction