Oops, an error
Loading. Please wait.

Burned At Both Ends tab

5,620 views 21 this week
5 commentsread comments
1 2 3 4 5
x 5
add to favorites
×
Save as Personal and add changes to this tab that will be seen only by you. Learn more ›
×
You can save this tab as Personal to edit and correct it or add notes. All changes will be seen only by you. Learn more »
launch autoscroll
font size
0
reset
how to read this tab
guitar tuner
edit
Autoscroll
slow
fast
+/-
esc
set tempo
stop
The song itself is in D Standard, but it sounds better to me and it much easier to play in Drop D.

Tuning: Drop D

Intro:
E|-----------------------------------------------|
B|---7-----------7-------------------------------|
G|-----7-6---6-7---7-6---6-7----7----------------| xLOTS.
D|---------7-----------7-------------------------|
A|-----------------------------------------------|
D|-----------------------------------------------|

Basically, you play that in the Intro, Choruses and Outro.

Verse:
E|-----------------------------------------------|
B|-----------------------------------------------|
G|-----------------------------------------------|
D|-0-0-0---0---0---0-0----5-5-5---5---5---5-5----|
A|-0-0-0---0---0---0-0----5-5-5---5---5---5-5----|
D|-0-0-0---0---0---0-0----5-5-5---5---5---5-5----|

E|-----------------------------------------------|
B|-----------------------------------------------|
G|-----------------------------------------------| all x2
D|-9-9-9---9---9---9-9----7-7-7---7---7---7-7----|
A|-9-9-9---9---9---9-9----7-7-7---7---7---7-7----|
D|-9-9-9---9---9---9-9----7-7-7---7---7---7-7----|

Chorus = same as Intro

Verse again,
Chorus again,

Bridge:
E|-------------------------------------------------|
B|-------------------------------------------------|
G|-------------------------------------------------|
D|-------------------------------------------------|
A|-2---4---5----0--------------0--2----4---5--0----|
D|------------------5------4---------------------5-|

Breakdown:
E|-------------------------------------------------|
B|-----------------7-----------------------7-------|
G|-------------------7-6---------------------7-6-7-|
D|-----------------------7-------------------------|
A|-000-000-000-000---------000-000-000-000---------|
D|-000-000-000-000---------000-000-000-000---------|
   ... ... ... ...         ... ... ... ...

E|-------------------------------------------------|
B|-----------------7-------------------------------|
G|-------------------7-6---------------------------|
D|-----------------------7-------------------------|
A|-000-000-000-000---------000-000-000-000---------|
D|-000-000-000-000---------000-000-000-000---------|
   ... ... ... ...         ... ... ... ...


Aaaaaaand, Chorus again, twice.
The ending's just a cross between the chorus and the breakdown, not difficult to work out at all!

            
            
Suggest correction
Creating personal tab
Creating personal tab
You can edit any tab online and save it as your Personal.

You can edit, replace or remove any tab part or add personal notes – all changes will be seen only by you.

Personal tabs can be accessed anytime from any device, even offline.
Learn more »
comments
print report bad tab
5 comments total. Showing first comments.
0 reply
Sam Rulez D00d 948 Mar 18, 2011 04:01 PM

im pretty sure its in d standard, not drop d. making the intro:
|-4p0---------4p0-------------|
|-----5p0-4h5-----5p0-4h5-5-5-|
|-----------------------------|
|-----------------------------|
|-----------------------------|
|-----------------------------|

0 reply
Sam Rulez D00d 948 Mar 27, 2011 03:03 AM

^my bad, that should read:
|-4p0---------4p0-------------|
|-----4p0-4h5-----4p0-4h5-5-5-|
|-----------------------------|
|-----------------------------|
|-----------------------------|
|-----------------------------|

0 reply
x3ricxblink182 1,021 Aug 01, 2011 12:41 PM

What he said, ^ loll.
Yeah great tab minus the intro.
it is in D Standard , making the intro alot easier
But yeah, everything sounds accurate though.

guest
You may want to rate the tab now too:
select rating
Wanna post a correction for this tab? Suggest correction