Oops, an error
Loading. Please wait.

All I Need tab

version 2
version 2

Whole song

Interactive

12,844 views 1 this week
2 commentsread comments
1 2 3 4 5
x 4
add to favorites
×
Save as Personal and add changes to this tab that will be seen only by you. Learn more ›
×
You can save this tab as Personal to edit and correct it or add notes. All changes will be seen only by you. Learn more »
launch autoscroll
font size
0
reset
how to read this tab
guitar tuner
edit
Autoscroll
slow
fast
+/-
esc
set tempo
stop
Author
 this took me about 6 hours and i have listened to the songs at least a million 
times now ..so hope its accurate enough :)
it also sounds good on piano, basicly just arpegios based on the chords



Tuning: Drop D


Chords = 
 * Gm : 3,5,5,3,3,3
 * Eb : x.6,8,8,8,6
 * F  : 1,3,3,2,1,1
 * Bb : x,1,3,3,3,1





PLAY TWICE FOR INTRO , THRID TIME ROUND START VERSE

     ( you can play the first 2 bars all up on 5th instead of using open d and g 
but i think it sounds nicer and is easier like this)



          GM                                                Eb
e|---------------------|---------------------------|----------------------|
B|---------------------|---------------------------|----------------------|
G|------0-----2-3-2----|-------0------2-3-2--------|----------------------|
D|-----0--0------------|------0--0-----------3-----|-----1-----3--1-------|
A|---------------------|---------------------------|---1---1--------1-----|
D|--5------------------|--5------------------------|-1--------------------|
          Im dying to catch my breath                    oh why don't i

         F
e|------------------------||
B|------------------------||
G|--------------2-3-2-----||
D|--------3------------3--||     X4
A|-----3----3-------------||
D|--3---------------------||
   ever learn ...



...I've lost all my trust 
Though i've surely tried, to turn it around






     BRIDGE:


          Eb                            F          Gm
e|------------------------|--------------------|---------------------------|
B|------------------------|--------------------|---------------------------|
G|------------------------|--------------------|---------------------------|
D|------1------3--1-------|------1----------3--|---------5------7--5--7----|
A|----1---1----------1----|----1---1------3----|------5-----5--------------|
D|-1----------------------|-1-----------3------|---5-----------------------|
            can..          you ..      still       see...          the.. 


                F         Eb                             F
e|----------------------|--------------------|-----------------------------|
B|----------------------|--------------------|-----------------------------|
G|----------------------|--------------------|-----------------------------|
D|-------5----------3---|-------1----3-1-3---|-----1-----------3-----------|
A|-----5---5------3-----|-----1---1----------|---1---1------3--------------|
D|--5-----------3-------|--1-----------------|-1---------3-----------------|
   heart        of..         me          all my  agony  fades away 


       Gm                             F   
e|--------------------|----------------------|
B|--------------------|----------------------|
G|--------------------|-----------------2-3--|
D|-------5----7--5--7-|-------5--------------|
A|-----5---5----------|-----5---5------------|
D|--5-----------------|--5-----------3-------|
                 when you hold me in your embrace.....





      CHORUS:

       Bb                                            Gm
e|------------------|-----------------------|-------------------------|
B|-----------1---3--|-----------------------|-------------------------|
G|-----3------------|------3-------2-3-2-0--|---------0----2-----0----|
D|----3--3----------|----3---3--------------|-------0---0-------------|
A|-1----------------|-1---------------------|-------------------------|
D|------------------|-----------------------|--5----------------------|
            Dont       tare       me         down         for           

       Gm                    Eb                               F
e|------------------|------------------|-------------------|---------------|
B|------------------|------------------|-------------------|---------------|
G|------0-----------|------------------|-------------------|---------------|
D|----0---0------3--|------1----3-1-3--|-------1---------1-|------3-----3--|
A|-------------3----|----1---1---------|-----1---1-----1---|----3---3-3----|
D|-5---------3------|--1---------------|---1---------1-----|--3------------|
   all       I        need    make my     heart a better    place   give me

         F
e|----------------------|                      
B|----------------------|
G|----------------------|
D|-------3-----3--------|
A|-----3---3-3----------|
D|-3-3------------3-2-0-|          
 something i can  believe.....


          Bb                                        Gm
e|------------------|-----------------------|-------------------------|
B|-----------1---3--|-----------------------|-------------------------|
G|-----3------------|------3----------------|---------0----2-----0----|
D|----3--3----------|----3---3--------------|-------0---0-------------|
A|-1----------------|-1-----------0-1-0-----|-------------------------|
D|------------------|-----------------------|--5----------------------|
            Dont       tare       me         down     ...       

 
     __ 
    |1.    ( V only first time round)
                           Eb                         
  e|---------------------|-------------------|----------------||
  B|---------------------|-------------------|----------------||
  G|-------0-------------|-------------------|----------------||
  D|-----0---0-----------|------1-----3-1----|------1------3--||
  A|-------------1-0-----|----1---1----------|----1------3----||
  D|--5--------------5---|--1----------------|--1------3------||
               you've opened a door      now             don't let it close


     __
    |2.    (All other times its this)
        Gm         F       Eb                                    Bb (strum)
   e|-------------------|--------------------|--------------------||
   B|-------------------|--------------------|--------------------||
   G|------0------------|--------------------|--------------------||
   D|----0---0-------3--|-----1-----3--1--3--|-----1--------0-----||
   A|--------------3----|---1---1------------|---1---1----0-------||
   D|--5---------3------|-1------------------|-1--------0---------||
         whats left of me       make my       heart a   better place





    RIFF LEADING TO VERSE


A|----------------------------------------------------|
D|--5-----5-7-8-7---5-3-5--5-----7-8-7--3-0-1-------0-|




    VERSE 2:

Im here on the edge again 
I wish i could let it go 
I know that im only one step away 
From turning around 




   [BRIDGE]



   [CHORUS]  





    NEXT PART =S :


 GM                                 F
I tried many times but nothing was real           
                Eb       
Make it fade away 
                    F
Dont brake me down

  Gm                                F
I want to believe that this is for real 
                  Eb
Save me from my fears 
                F
Dont tear me down





[CHORUS X2]



end on Bb.



            
            
Suggest correction
Creating personal tab
Creating personal tab
You can edit any tab online and save it as your Personal.

You can edit, replace or remove any tab part or add personal notes – all changes will be seen only by you.

Personal tabs can be accessed anytime from any device, even offline.
Learn more »
comments
print report bad tab
2 comments total.
-1 reply
LilySun23 10 Jul 19, 2010 09:30 AM

Great tab i think but i just need an advice.. i tried to do the drop D tunning but i can't! everytime i try, i break my E strings :s i'd love to play this song and i can't figure out what to do!

0 reply
LongLostLove 31 Jul 21, 2010 01:17 PM

@LilySun23 It's very easy. You just have to tune it a whole step down (that means it must match the open d-string). Do you have a capo? If yes, put it on the first fret and tune your low E-string down, so it's standard when you have the capo on. Then move the capo to the second fret and do it again. Then you have tuned it a whole step down and can play in drop d :)

guest
You may want to rate the tab now too:
select rating
Wanna post a correction for this tab? Suggest correction