Oops, an error
Loading. Please wait.

Jane Doe tab

version 1
version 1

Whole song

Interactive

768 views 3 this week
no commentswrite comment
1 2 3 4 5
3 more votes to show rating
add to favorites
×
Save as Personal and add changes to this tab that will be seen only by you. Learn more ›
×
You can save this tab as Personal to edit and correct it or add notes. All changes will be seen only by you. Learn more »
launch autoscroll
font size
0
reset
how to read this tab
guitar tuner
edit
Autoscroll
slow
fast
+/-
esc
set tempo
stop
Author
Jane Doe by Within Temptation
From the single Mother Earth
tabbed by: IXAYAXI

This is my first tab, it is a pretty good song if you don't know it you have to listen 
it, and it's very easy so i'm sure it's perferct.

Intro (acoustic)

|--------------------------------|
|--------------------------------|
|--------------------------------|
|-----2---3-2--------2---3-2-----| x8, at the 4th time start the electric
|---2---2-----2----2---2-----2---|
|0--------------0--------------0-|

Intro (electric)

|--------------------------------|--------------------------------|
|--------------------------------|--------------------------------|
|--------------------------------|--------------------------------|
|--------------------------------|--------------------------------|
|2~~-----------------------------|~-------------------------------|
|0~~-----------------------------|~-------------------------------|


|--------------------------------|--------------------------------|
|--------------------------------|--------------------------------|
|--------------------------------|--------------------------------|
|--------------------------------|--------------------------------|
|2~--------------4~--------------|5~------------------------------|
|0~--------------2~--------------|3~------------------------------|

Chorus (electric)

|--------------------------------|--------------------------------|
|--------------------------------|--------------------------------|
|--------------------------------|--------------------------------|
|--------------------------------|--------------------------------|
|5~--------------2~--------------|5~--------------4~--------------|
|3~--------------0~--------------|3~--------------2~--------------|


|--------------------------------|--------------------------------|
|--------------------------------|--------------------------------|
|--------------------------------|--------------------------------|
|--------------------------------|--------------------------------|
|5~--------------2~--------------|4~------------------4-44-4-44-4-|
|3~--------------0~--------------|2~------------------2-22-2-22-2-|
                                                        **   ** *
|--------------------------------|--------------------------------|
|--------------------------------|--------------------------------|
|--------------------------------|--------------------------------|
|--------------------------------|--------------------------------|
|5~--------------2~--------------|7~------------------4-44-4-44-4-|
|3~--------------0~--------------|5~------------------2-22-2-22-2-|
                                                        **   ** *
|--------------------------------|
|--------------------------------|
|--------------------------------|
|--------------------------------|
|5~--------------2~--------------|
|3~--------------0~--------------|

Repeat intro acoustic x2

Verse

        Part 1 without guitar

        Part 2 (acoustic)

        |------------------------------2~|
        |------------------1~------1-3---|
        |-----0~---------0-------2-------|
        |---2----------2-------2---------| x2
        |-----------3--------------------|
        |0-------------------------------|

        Part 3 (electric)
        |--------------------------------|--------------------------------|
        |--------------------------------|--------------------------------|
        |--------------------------------|--------------------------------|
        |--------------------------------|--------------------------------|x2
        |2-2-2-2-2-2-2-2-7-7-7-7-7-7-7-7-|5-5-5-5-5-5-5-5-5-5-5-5-4-4-4-4-|
        |0-0-0-0-0-0-0-0-5-5-5-5-5-5-5-5-|3-3-3-3-3-3-3-3-3-3-3-3-2-2-2-2-|
         * * * * * * * * * * * * * * * *  * * * * * * * * * * * * * * * *
        |--------------------------------|----------------|
        |--------------------------------|----------------|
        |--------------------------------|----------------|
        |--------------------------------|----------------|
        |---------------------------4~---|4-4-4-5-5-5-7---|
        |0-2-2-0-2--0--0-2-2-0-2--0-2~---|2-2-2-3-3-3-5---|
                                            * *   * *
Repeat chorus

Interlude (acoustic)

|---------------------------------|
|---------------------------------|
|---------------------------------|
|-----2---3-2--------2---3-2------| x4
|---2---2-----2----2---2----2-2---|
|0--------------0--------------1p0|

Repeat verse

Repeat chorus x2

Outro
|----------------|
|----------------|
|----------------|
|----2---3-2-----|
|--2---2-----2---|
|0-------------0-|

Enjoy!

            
            
Suggest correction
Creating personal tab
Creating personal tab
You can edit any tab online and save it as your Personal.

You can edit, replace or remove any tab part or add personal notes – all changes will be seen only by you.

Personal tabs can be accessed anytime from any device, even offline.
Learn more »
Give kudos to tab author, rate the tab!
1 2 3 4 5
comments
print report bad tab
guest
You may want to rate the tab now too:
select rating
Wanna post a correction for this tab? Suggest correction