Oops, an error
Loading. Please wait.

Our Solemn Hour tab

version 1
version 1

Whole song

Interactive

8,112 views 6 this week
no commentswrite comment
1 2 3 4 5
2 more votes to show rating
add to favorites
×
Save as Personal and add changes to this tab that will be seen only by you. Learn more ›
×
You can save this tab as Personal to edit and correct it or add notes. All changes will be seen only by you. Learn more »
launch autoscroll
font size
0
reset
how to read this tab
guitar tuner
edit
Autoscroll
slow
fast
+/-
esc
set tempo
stop
Tuning-Dropped D
- palm mute
/ slide up 
\ slide down
() let ring
~ vibro 
b bend 
r release 
h hammer on 
p pull off

intro/chorus
|-----------------------------------------------------------------|
|-----------------------------------------------------------------|
|-----------------------------------------------------------------|
|-0-0-0-0-0-0-0-0-8-8-8-8-3-3-2-2-0-0-0-0-7-7-7-7-5-5-5-5-8-8-7-7-|
|-0-0-0-0-0-0-0-0-8-8-8-8-3-3-2-2-0-0-0-0-7-7-7-7-5-5-5-5-8-8-7-7-|
|-0-0-0-0-0-0-0-0-8-8-8-8-3-3-2-2-0-0-0-0-7-7-7-7-5-5-5-5-8-8-7-7-|

|-------------------------------------------------------------------------|
|-------------------------------------------------------------------------|
|-------------------------------------------------------------------------|
|-0-0-0-0-0-0-0-0-8-8-8-8-3-3-2-2-8-8-8-8-8-8-8-8-10-10-10-10-10-10-10-10-|
|-0-0-0-0-0-0-0-0-8-8-8-8-3-3-2-2-8-8-8-8-8-8-8-8-10-10-10-10-10-10-10-10-|
|-0-0-0-0-0-0-0-0-8-8-8-8-3-3-2-2-8-8-8-8-8-8-8-8-10-10-10-10-10-10-10-10-|

|------------|
|------------|
|--let ring--
|-(0)--------|
|-(0)--------|
|-(0)--------|

first verse (violin)
|-------------------------------------------|
|-------------------------------------------|
|-------------------------------------------|
|-------------------------------------------|
|-5~-----7~--------------------------8~--7~-|
|-----------7~-------5~--------5~-----------|

|------------------------------------------|
|------------------------------------------|
|------------------------------------------|
|------------------------------------------|
|-5~-----7~--------------------------------|
|-----------7~-------5~--------7~----------|

first pre-chorus
|--------------------------------------------|
|--------------------------------------------|
|--------------------------------------------|
|-8--------0--------7------------------------|
|-8--------0--------7--------8-8-8-8-8-8-8-8-|
|-8--------0--------7--------8-8-8-8-8-8-8-8-|
                             - - - - - - - -
repeat chorus

second verse
|---------------------------------------------------------------------|
|---------------------------------------------------------------------|
|---------------------------------------------------------------------|
|-0-----0-----0---7-----7-----7---5-----5-----5---7-----7/10----------|
|-0-0-0-0-0-0-0-0-7-7-7-7-7-7-7-7-5-5-5-5-5-5-5-5-7-7-7-7/10-10-10-10-|
|-0-0-0-0-0-0-0-0-7-7-7-7-7-7-7-7-5-5-5-5-5-5-5-5-7-7-7-7/10-10-10-10-|
    - -   - -   -   - -   - -   -   - -   - -   -   - -       -  -  -

|-----------------------------------------------------------------|
|-----------------------------------------------------------------|
|-----------------------------------------------------------------|
|-0-----0-----0---7-----7-----7---5-----5-----5---7-----7-----7---|
|-0-0-0-0-0-0-0-0-7-7-7-7-7-7-7-7-5-5-5-5-5-5-5-5-7-7-7-7-7-7-7-7-|
|-0-0-0-0-0-0-0-0-7-7-7-7-7-7-7-7-5-5-5-5-5-5-5-5-7-7-7-7-7-7-7-7-|
    - -   - -   -   - -   - -   -   - -   - -   -   - -   - -   -

second pre-chorus
|------------------------------------------------------------------|
|------------------------------------------------------------------|
|------------------------------------------------------------------|
|-8-----8-----8---0-----0-----0---7-----7-----7---8-----8----------|
|-8-8-8-8-8-8-8-8-0-0-0-0-0-0-0-0-7-7-7-7-7-7-7-7-8-8-8-8-8-8-8888-|
|-8-8-8-8-8-8-8-8-0-0-0-0-0-0-0-0-7-7-7-7-7-7-7-7-8-8-8-8-8-8-8888-|
    - -   - -   -   - -   - -   -   - -   - -   -   - -   - - ----

repeat chorus

bridge
|-------------------------------------------------------------|
|-------------------------------------------------------------|
|-------------------------------------------------------------|
|-8--------8----8----10--------10----10----0--------0----0----|
|-8--------8----8----10--------10----10----0--------0----0----|
|-8--------8----8----10--------10----10----0--------0----0----|

|----------------------------------------------------------|
|----------------------------------------------------------|
|----------------------------------------------------------|
|-7--------7----7----8--------8----8----5--------5----5----|
|-7--------7----7----8--------8----8----5--------5----5----|
|-7--------7----7----8--------8----8----5--------5----5----|

|-------------------------------------------------------|
|-------------------------------------------------------|
|-------------------------------------------------------|
|---------7------------------------7--------8-7---5-----|(0)
|-7-7---7-7--------8-7---5-7-7---7-7--------8-7---5-----|(0)
|-7-7---7-7--------8-7---5-7-7---7-7--------8-7---5-----|(0)
  - -   -          - -   - - -   -

solo:  
|------------------------------------
|------------8(fade in)-----10-------
|-7(fade in)-------------------------
|------------------------------------
|------------------------------------
|------------------------------------ 

  D5                                Bb5               A5
|----------------------------------------------------------
|-----------------------------5---5-5h6----5---------------
|-7b-r7-b7----b7----r7----5h7---7------------7----7------9-
|----------------------------------------------8----8-7----
|----------------------------------------------------------
|---------------------------------------------------------- 
 C5                 Bb5                   C5        
|----------------------------------------------------------
|------8----8h10-----------------8~------------------------
|-9h10---10------10p7-----7-9-10-----10-9-7---7-9----------
|-------------------------------------------------10-8-----
|----------------------------------------------------------
|---------------------------------------------------------- 
            Bb5                         A5
|---------8h10---10-12-13-15---13-15-17-18---18--171715-17\5-
|-----8h10---------------------------------------------------
|-7h10-------------------------------------------------------
|------------------------------------------------------------
|------------------------------------------------------------
|------------------------------------------------------------ 

outro 
|---------------------------------|
|---------------------------------|
|---------------------------------|
|-0-0-0-0-7-7-7-7-5-5-5-5-8-8-7-7-|
|-0-0-0-0-7-7-7-7-5-5-5-5-8-8-7-7-|
|-0-0-0-0-7-7-7-7-5-5-5-5-8-8-7-7-| 

|-------------------------------------------------------------------------|
|-------------------------------------------------------------------------|
|-------------------------------------------------------------------------|
|-0-0-0-0-0-0-0-0-8-8-8-8-3-3-2-2-8-8-8-8-8-8-8-8-10-10-10-10-10-10-10-10-|
|-0-0-0-0-0-0-0-0-8-8-8-8-3-3-2-2-8-8-8-8-8-8-8-8-10-10-10-10-10-10-10-10-|
|-0-0-0-0-0-0-0-0-8-8-8-8-3-3-2-2-8-8-8-8-8-8-8-8-10-10-10-10-10-10-10-10-|

|-----------------------------------------------------------------|
|-----------------------------------------------------------------|
|-----------------------------------------------------------------|
|-0-0-0-0-0-0-0-0-8-8-8-8-3-3-2-2-0-0-0-0-7-7-7-7-5-5-5-5-8-8-7-7-|
|-0-0-0-0-0-0-0-0-8-8-8-8-3-3-2-2-0-0-0-0-7-7-7-7-5-5-5-5-8-8-7-7-|
|-0-0-0-0-0-0-0-0-8-8-8-8-3-3-2-2-0-0-0-0-7-7-7-7-5-5-5-5-8-8-7-7-|

|-------------------------------------------------------------------------|
|-------------------------------------------------------------------------|
|-------------------------------------------------------------------------|
|-0-0-0-0-0-0-0-0-8-8-8-8-3-3-2-2-8-8-8-8-8-8-8-8-10-10-10-10-10-10-10-10-|
|-0-0-0-0-0-0-0-0-8-8-8-8-3-3-2-2-8-8-8-8-8-8-8-8-10-10-10-10-10-10-10-10-|
|-0-0-0-0-0-0-0-0-8-8-8-8-3-3-2-2-8-8-8-8-8-8-8-8-10-10-10-10-10-10-10-10-| 

end. 

            
            
Suggest correction
Creating personal tab
Creating personal tab
You can edit any tab online and save it as your Personal.

You can edit, replace or remove any tab part or add personal notes – all changes will be seen only by you.

Personal tabs can be accessed anytime from any device, even offline.
Learn more »
Give kudos to tab author, rate the tab!
1 2 3 4 5
comments
print report bad tab
guest
You may want to rate the tab now too:
select rating
Wanna post a correction for this tab? Suggest correction