Oops, an error
Loading. Please wait.

Where Is The Edge chords

version 3
version 3

Whole song

172 views 1 this week
no commentswrite comment
1 2 3 4 5
3 more votes to show rating
add to favorites
×
Save as Personal and add changes to this tab that will be seen only by you. Learn more ›
×
You can save this tab as Personal to edit and correct it or add notes. All changes will be seen only by you. Learn more »
launch autoscroll
font size
0
reset
transpose
0
reset
simplify chords
display chords
guitar tuner
edit
Autoscroll
slow
fast
+/-
esc
set tempo
stop
Strumming
There is no strumming pattern for this song yet. and get +5 IQ
====GUITAR LICKS AND NOTES====
PRE-CHORUS
The parenthetical notes are just octaves sliding up.
0x0xxx -> 2x2xxx -> 3x3xxx, etc.

p = palm mute

INTERLUDE 1 Lick

D#|-----------------|-----------------|-----------------|-----------------|
A#|-----------------|-----------------|-----------------|-----------------|
F#|-4---5---4-5-----|-5---5---4-5-----|-4---5---4-5-----|-5---5---4-5-----|
C#|-7-------------7-|---------------7-|---------------7-|---------------7-|
G#|---0---0-----0---|---0---0-----0---|-----------------|-----------------|
C#|-----------------|-----------------|---3---3-----3---|---3---3-----3---|
      p   p     p       p   p     p       p   p     p       p   p     p
    G#m                                 E

D#|-----------------|-----------------|
A#|-----------------|-----------------|
F#|-4---5---4-5-----|-5---5---4-5-----|
C#|---------------7-|---------------7-|
G#|-----------------|-----------------|
C#|---5---5-----5---|---5---5-----5---|
      p   p     p       p   p     p
    F#

INTERLUDE 2 Lick

D#|-----------------|-----------------|-----------------|-----------------|
A#|-----------------|-----------------|-----------------|-----------------|
F#|-----5---4-5-----|-5---5---4-5-----|-----5---4-5-----|-5---5---4-5-----|
C#|---7-----------7-|---------------7-|---7-----------7-|---------------7-|
G#|-0-----0-----0---|---0---0-----0---|-----------------|-----------------|
C#|-----------------|-----------------|-3-----3-----3---|---3---3-----3---|
    p     p     p       p   p     p     p     p     p       p   p     p
    G#m                                 E

D#|-----------------|-----------------|-----------------|-----------------|
A#|-----------------|-----------------|-----------------|-----------------|
F#|-----5---4-5-----|-5---5---4-5-----|-----5---4-5-----|-5---5---4-5-----|
C#|---7-----------7-|---------------7-|---7-----------7-|---------------7-|
G#|-----------------|-----------------|-----------------|-----------------|
C#|-5-----5-----5---|---5---5-----5---|-2-----2-----2---|---2---2-----2---|
    p     p     p       p   p     p     p     p     p       p   p     p
    F#                                  D#m


==END GUITAR LICKS AND NOTES==


ORDER: I V1 PC C INT1 V2 PC C B INT2 C


[INTRO]
G#m F# |E F# |G#m F# |Emaj7 G#sus4 (CHUGGAH)
G#m F# |E F# |G#m F# |G#m


[VERSE 1]
       E
In the shadow awakes a desire
             G#m
That you know   that you can't realize
        E
And the pressure will just keep on rising
             G#m
Now the heat is on
              E
It's too late, there is no way around it
             G#m
You have seen   it yourself many times
          E
In the end you will give up the fighting
     G#m

Unescapable


[PRE-CHORUS]
               C#m           (D#)
'Cause you're losing your mind
           (E)             (F#)         D#sus4
And you're sleeping with wide open eyes


[CHORUS]
G#m            F#           E        F#
Where is the edge of your darkest emotions?
G#m          F#         C#m7

Why does it all survive?
G#m               F#             E          F#

Where is the light  of your deep - est devo - tion?
E                     F#      G#m
I pray that it's still alive


[INTERLUDE 1]
G#m E F# G#m
        (syncopation beeps)


[VERSE 2]
             E
It's the rule that you live by and die for
            G#m

It's the one   thing you cannot deny
           E
Even though you don't know what the price is
         G#sus4
It is justi - fed

            E
So much more that you've got now to fight for
            G#m
But it still   doesn't change who you are
           E
There is no fear you'll ever give in to
              G#m
You're untoucha - ble


[PRE-CHORUS]
               C#m           (D#)
'Cause you're losing your mind
           (E)             (F#)         D#sus4
And you're sleeping with wide open eyes


[CHORUS]
G#m            F#           E        F#
Where is the edge of your darkest emotions?
G#m          F#         C#m7
Why does it all survive?
G#m               F#             E          F#

Where is the light  of your deep - est devo - tion?
E                     F#      G#m
I pray that it's still alive


[BRIDGE]
                        E                  F#
You can't stop yourself, don't want to feel
                 G#m

Don't want to see   what you've become
                   E                   F#
You can't walk away from who you are
             G#m

Never give in


[INTERLUDE 2]
G#m E F# D#m
G#m E F# D#m


[CHORUS]
G#m            F#           E        F#
Where is the edge of your darkest emotions?
G#m          F#         C#m7
Why does it all survive?
G#m               F#             E          F#

Where is the light  of your deep - est devo - tion?
E                     F#      G#m
I pray that it's still alive

            
            
Suggest correction
Creating personal tab
Creating personal tab
You can edit any tab online and save it as your Personal.

You can edit, replace or remove any tab part or add personal notes – all changes will be seen only by you.

Personal tabs can be accessed anytime from any device, even offline.
Learn more »
Give kudos to tab author, rate the tab!
1 2 3 4 5
comments
print report bad tab
guest
You may want to rate the tab now too:
select rating
Wanna post a correction for this tab? Suggest correction