Oops, an error
Loading. Please wait.

Extinguish Them tab

version 1
version 1

Whole song

Interactive

9,017 views 1 this week
1 commentread comment
1 2 3 4 5
x 9
add to favorites
×
Save as Personal and add changes to this tab that will be seen only by you. Learn more ›
×
You can save this tab as Personal to edit and correct it or add notes. All changes will be seen only by you. Learn more »
launch autoscroll
font size
0
reset
how to read this tab
guitar tuner
edit
Autoscroll
slow
fast
+/-
esc
set tempo
stop
Author
*this tab is taken from the myspace of within the ruins*

WITHIN THE RUINS
"Extinguish Them"
G# D# G# C# F A#

|------------------------------------------------------------------|
|------------------------------------------------------------------|
|------------------------------------------------------------------|
|------------------------------------------------------------------|
|-----12-11--------8----------9------------------------------------|
|-000-------000-11---11_11_11--------------------------------------|

|------------------------------------------------------------------|
|------------------------------------------------------------------|
|------------------------------------------------------------------|
|------------------------------------------------------------------|
|------4-7-4-7-3-6-4-7-3-6-4-7-3-6---------------------------------|
|-4444-------------------------------------------------------------|

|------------------------------------------------------------------|
|------------------------------------------------------------------|
|------------------------------------------------------------------|
|------------------------------------------------------------------|
|-----4-----4-----5-----5-----2-----2-----4-----4------------------|
|-777---777---999---999---666---666---777---777--------------------|

|------------------------------------------------------------------|
|------------------------------------------------------------------|
|------------------------------------------------------------------|
|-------------9-11------9-11---------------------------------------|
|-----12-11-8------9-12------9-12----------------------------------|
|-000--------------------------------------------------------------|

|------------------------------------------------------------------|
|------------------------------------------------------------------|
|------------------------------------------------------------------|
|-66-6-6-6-6-66-666-6-66-666-6-6-666-7-11-7-11-6-7-11--------------|
|-44-4-4-4-4-44-444-4-44-444-4-4-444------------------9------------|
|-33-3-3-3-3-33-333-3-33-333-3-3-333-------------------------------|

|------------------------------------------------------------------|
|------------------------------------------------------------------|
|------------------------------------------------------------------|
|-66-6-6-6-6-66-666-6-66-666-6-6-666-7-11-7-11-6-7-11--------------|
|-44-4-4-4-4-44-444-4-44-444-4-4-444------------------8------------|
|-33-3-3-3-3-33-333-3-33-333-3-3-333-------------------------------|

|----------------------------------------------------------------------|
|------------------------------------------------14-9-------------14-9-|
|------------------------------------14p11------------14p11------------|
|-66-6-6-6-6-66-666-6-66-666---------------12-11------------12-11------|
|-44-4-4-4-4-44-444-4-44-444-6-6-666-----------------------------------|
|-33-3-3-3-3-33-333-3-33-333-8-8-888-----------------------------------|

|--------------------------------------------------------------------------------------------|
|--------------------------------------------------------------------------------------------|
|----13p10-------14-11----13p10-------14-11--13p10-----13p10--------14-11-13--10-13p10-------|
|-4--------12-11-------3--------12-11--------------12--------12-11---------------------12-11-|
|-4--------------------3---------------------------------------------------------------------|
|-4--------------------3---------------------------------------------------------------------|

x2|---------------------|------------------------|--------------------------|---------|
x2|---------------------|-----------------10-9-6-|--------------------------|---------|
x2|---------------------|-6-11-6-7-6-10-6--------|--------------------------|---------|
x2|-4-7-4-3-4-7-4-7-6-3-|------------------------|-7-11-7-6-7-11-7-11-9-6---|-4--444--|
x2|---------------------|------------------------|--------------------------|-4--444--|
x2|---------------------|------------------------|--------------------------|-4--444--|

x4|------------------------------------------------------------------|
x4|------------------------------------------------------------------|
x4|------------------------------------------------------------------|
x4|------------------------------------------------------------------|
x4|-4-7-4-3-4-7--4-7-6-3---------------------------------------------|
x4|-4-7-4-3-4-7--4-7-6-3---------------------------------------------|

LEAD:
|----------------------------------------------------------------------|
|-------------------------------------------------------------------14-|
|-11-10-6----11-10-11-14--13-11-10----11-10-6----11-10-11-14--13-11----|
|----------------------------------------------------------------------|
|----------------------------------------------------------------------|
|----------------------------------------------------------------------|

SOLO:
|-----------------------------------------------------------------------|
|-------14-19~--18-------12-10---------------------------9-10-----------|
|-11-14------------19-18-------13-10---11-10-------10-11-------11-10----|
|--------------------------------------------11-12----------------------|
|-----------------------------------------------------------------------|
|-----------------------------------------------------------------------|

|-12b--------------------------------------------------------|
|-----10-9----------------------------9-10-------------------|
|----------11-10~---11-10-------10-11------11~10~------------|
|-------------------------11-12------------------------------|
|------------------------------------------------------------|
|------------------------------------------------------------|

|------------------------------------------------------------------|
|------------------------------------------------------------------|
|-6-------------------6-11-6---------------------------------------|
|-4--------------------------7-6-11~-------------------------------|
|-4-44--44--4-4--4-4-----------------------------------------------|
|-4-44--44--4-4--4-4-----------------------------------------------|

x4|------------------------------------------------------------------|
x4|------------------------------------------------------------------|
x4|---------------------------6-11-6---------------------------------|
x4|----------11-9------9-11----------7-6-11~-------------------------|
x4|----9----------12-8-----------------------------------------------|
x4|-4----4-----------------------------------------------------------|

|--------------------------------------------------|
|--------------------------------------------------|
|-6----------------------6-------------------------|
|-4----------------------4-------------------------|
|-4--44--44-4-4--4-4-----4--44--44-4-4--4-4--------|
|-4--44--44-4-4--4-4-----4--44--44-4-4--4-4--------|

LEAD:
x4|------------------------------------------|
x4|------------------------------------------|
x4|-10-13-------10-13------------------------|
x4|-------12-9--------12-9-------------------|
x4|------------------------------------------|
x4|------------------------------------------|

x4|--------------------------------------------|
x4|--------------------------------------------|
x4|--------------------------------------------|
x4|--------------------------------------------|
x4|---5------------5------------5--------------|
x4|-6---6-3-00-3-6---66-3-0-3-6---6-3----------|

|--------------------------------------------------------------------|
|--------------------------------------------------------------------|
|-10-11-13---11-13-14---10----------------10-11-13---11-13-14--------|
|--------------------------12-9-12-9-12------------------------9-8-9-|
|--------------------------------------------------------------9-8-9-|
|--------------------------------------------------------------9-8-9-|

|----------------------------------------------------------------------------|
|----------------------------------------------------------------------------|
|-10-11-13---11-13-14---10----------------10-11-13---11-13-14----------------|
|--------------------------12-9-12-9-12--------------------------------------|
|--------------------------------------------------------------333-333-3-3-3-|
|--------------------------------------------------------------444-444-4-4-4-|

|-------------------------------------------------------------------------------------|
|-------------------------------------------------------------------------------------|
|-----------------------------10----------------------------------10----------7-------|
|--------------------------------12-9-12-----------------------------12-9-12----9-6-9-|
|-333-333-3-3-3---333-33-3-3---------------333-333-3-3-3---333-3----------------------|
|-444-444-4-4-4---444-44-4-4---------------444-444-4-4-4---444-4----------------------|

|----------------------------------------------------------------------------|
|----------------------------------------------------------------------------|
|-4--7-6-3-------------------------------------------------------------------|
|----------5--4-2------------------------------------------------------------|
|-----------------4--5-7-9--5--4-2-------------------------------------------|
|----------------------------------------------------------------------------|

|----------------------------------------------------------------------------|
|----------------------------------------------------------------------------|
|-4--7-6-3--11--9-6--6--7-9-11--7--6-4---------------------------------------|
|---------------------------------------5--7-9-5--4--2-4---------------------|
|----------------------------------------------------------4--5-7-9----------|
|--------------------------------------------------------------------5--4-2--|

|----------------------------------------------------------------------------|
|----------------------------------------------------------------------------|
|-4--7-6-3-------------------------------------------------------------------|
|----------5--4-2--------------------5--7-9-5--4--2-4------------------------|
|-----------------4--5-7-9--5--4-2---------------------4--5-7-9---5-4-2------|
|----------------------------------------------------------------------------|

            
            
Suggest correction
Creating personal tab
Creating personal tab
You can edit any tab online and save it as your Personal.

You can edit, replace or remove any tab part or add personal notes – all changes will be seen only by you.

Personal tabs can be accessed anytime from any device, even offline.
Learn more »
comments
print report bad tab
1 comment total.
0 reply
rsxkilla 253 Aug 23, 2011 01:38 PM

i know you got this from the bands page, but i wish you would have taken some time to check the tab, all the parts are there but its not always the right amount of repeats and such, just some confusion when trying to work this out.

guest
You may want to rate the tab now too:
select rating
Wanna post a correction for this tab? Suggest correction