Oops, an error
Loading. Please wait.

Kingdom Of Might The Eclipse tab

990 views 1 this week
1 commentread comment
1 2 3 4 5
1 last vote to show rating
add to favorites
×
Save as Personal and add changes to this tab that will be seen only by you. Learn more ›
×
You can save this tab as Personal to edit and correct it or add notes. All changes will be seen only by you. Learn more »
launch autoscroll
font size
0
reset
how to read this tab
guitar tuner
edit
Autoscroll
slow
fast
+/-
esc
set tempo
stop
Author
This tab is from the "left" speaker only i believe, ENJOY!!

Eb :----------------|------------------|----------------|
Bb :----------------|------------------|----------------|
Gb :----------------|------------------|----------------|
Db :----------------|------------------|----------------|
Ab :2-1-*---5-4-*---|12-11-*-8-*-7-6---|2-1-*---5-4-*---|
Db :2-1-*---5-4-*---|12-11-*-8-*-7-6---|2-1-*---5-4-*---|

Eb :--------------------------|----------------|------------------|
Bb :--------------------------|----------------|------------------|
Gb :13-13-13-13-13-*-10-*-9-*-|----------------|------------------|
Db :--------------------------|----------------|------------------|
Ab :11-11-11-11-11-*--8-*-7-*-|2-1-*---5-4-*---|12-11-*-8-*-7-6---|
Db :--------------------------|2-1-*---5-4-*---|12-11-*-8-*-7-6---|

Eb :----------------|-------------------------|----------------|
Bb :----------------|-------------------------|----------------|
Gb :----------------|10-10-10-10-10-*-9-*-6-*-|----------------|
Db :----------------|-------------------------|----------------|
Ab :2-1-*---5-4-*---|-8--8--8--8--8-*-7-*-4-*-|2-1-0*0*5-4-0*0*|
Db :2-1-*---5-4-*---|-------------------------|2-1-0*0*5-4-0*0*|

Eb :------------------|----------------|----------------------|
Bb :------------------|----------------|----------------------|
Gb :------------------|----------------|13-13-13-13-10-10-9-9-|
Db :------------------|----------------|----------------------|
Ab :12-11*8*7*8*7*6---|2-1-0*0*5-4-0*0*|11-11-11-11--8--8-7-7-|
Db :12-11*8*7*8*7*6---|2-1-0*0*5-4-0*0*|----------------------|

Eb :----------------|------------------|----------------|
Bb :----------------|------------------|----------------|
Gb :*---------------|------------------|----------------|
Db :----------------|------------------|----------------|
Ab :2-1-0*0*5-4-0*0*|12-11*8*7*8*7*6---|2-1-0*0*5-4-0*0*|
Db :2-1-0*0*5-4-0*0*|12-11*8*7*8*7*6---|2-1-0*0*5-4-0*0*|

Eb :--------------------|-------------------------------|
Bb :--------------------|-------------------------------|
Gb :10-10-10-10-9-9-6-6-|*------------------------------|
Db :--------------------|-------------------------------|
Ab :-8--8--8--8-7-7-4-4-|*-----------------------8-8-8-8|
Db :--------------------|0-0-0-0-2-2-2-2-3-3-3-3-*------|

Eb :-------------------------------|-------------------------------|
Bb :-------------------------------|-------------------------------|
Gb :-------------------------------|-------------------------------|
Db :-------------------------------|-------------------------------|
Ab :7-7-7-7-7-7-7-7-*--------------|-------------------------------|
Db :----------------8-8-8-8-8-8-8-8|7-7-7-7-7-7-7-7-6-6-6-6-6-6-6-6|

Eb :-------------------------------|-------------------------------|
Bb :-------------------------------|-------------------------------|
Gb :-------------------------------|-------------------------------|
Db :-------------------------------|-------------------------------|
Ab :-------------------------------|------------------------8-8-8-8|
Db :6-6-6-6-6-6-6-6-6-6-6-6-6-6-6-6|0-0-0-0-2-2-2-2-3-3-3-3-*------|

Eb :-------------------------------|-------------------------------|
Bb :-------------------------------|-------------------------------|
Gb :-------------------------------|-------------------------------|
Db :-------------------------------|-------------------------------|
Ab :7-7-7-7-7-7-7-7-*--------------|-------------------------------|
Db :----------------8-8-8-8-8-8-8-8|7-7-7-7-7-7-7-7-6-6-6-6-6-6-6-6|

Eb :-----------------------------------------------|----------------|
Bb :-----------------------------------------------|----------------|
Gb :-----------------------------------------------|6-----------6-6-|
Db :-----------------------------------------------|----------------|
Ab :11-11-11-11-11-11-11-11-11-11-11-11-11-11-11-11|4-----------4-4-|
Db :-*---------------------------------------------|----------------|

Eb :--------------------|-----------------|--------------------|
Bb :--------------------|-----------------|--------------------|
Gb :/10-----------10-10-|\9-----------9-9-|/13-----------13\---|
Db :--------------------|-----------------|--------------------|
Ab :/-8------------8--8-|\7-----------7-7-|/11-----------11\---|
Db :--------------------|-----------------|--------------------|

Eb :----------------|-------------------------|-----------------|
Bb :----------------|-------------------------|-----------------|
Gb :6-6-6-6-6-6-6-6-|/10-10-10-10-10-10-10-10-|\9-9-9-9-9-9-9-9-|
Db :----------------|-------------------------|-----------------|
Ab :4-4-4-4-4-4-4-4-|/-8--8--8--8--8--8--8--8-|\7-7-7-7-7-7-7-7-|
Db :----------------|-------------------------|-----------------|

Eb :-----------------------------|-------------------------------|
Bb :-----------------------------|-------------------------------|
Gb :13-13-13-b13-b13-b15-b15-b15-|*------------------------------|
Db :-----------------------------|-------------------------------|
Ab :11-11-11-b11-b11-b13-b13-b13-|*-----------------------8-8-8-8|
Db :-----------------------------|0-0-0-0-2-2-2-2-3-3-3-3-*------|

Eb :-------------------------------|-------------------------------|
Bb :-------------------------------|-------------------------------|
Gb :-------------------------------|-------------------------------|
Db :-------------------------------|-------------------------------|
Ab :7-7-7-7-7-7-7-7-5-5-5-5-4-4-4-4|5-5-5-5-4-4-4-4-*--------------|
Db :-------------------------------|----------------8-8-8-8-7-7-7-7|

Eb :-------------------------------|-------------------------------|
Bb :-------------------------------|-------------------------------|
Gb :-------------------------------|-------------------------------|
Db :-------------------------------|-------------------------------|
Ab :-------------------------------|------------------------8-8-8-8|
Db :6-6-6-6-6-6-6-6-3-3-3-3-3-3-3-3|0-0-0-0-2-2-2-2-3-3-3-3-*------|

Eb :-------------------------------|-------------------------------|
Bb :-------------------------------|-------------------------------|
Gb :-------------------------------|-------------------------------|
Db :-------------------------------|-------------------------------|
Ab :7-7-7-7-7-7-7-7-5-5-5-5-4-4-4-4|5-5-5-5-4-4-4-4-*--------------|
Db :-------------------------------|----------------8-8-8-8-7-7-7-7|

Eb :----------------|-------------------------------|
Bb :----------------|-------------------------------|
Gb :----------------|-------------------------------|
Db :----------------|-------------------------------|
Ab :7*7*6---6*6*3---|*-----------------------8-8-8-8|
Db :7*7*6---6*6*3---|0-0-0-0-2-2-2-2-3-3-3-3-*------|

Eb :-------------------------------|-------------------------------|
Bb :-------------------------------|-------------------------------|
Gb :-------------------------------|-------------------------------|
Db :-------------------------------|-------------------------------|
Ab :7-7-7-7-7-7-7-7-5-5-5-5-4-4-4-4|5-5-5-5-4-4-4-4-*--------------|
Db :-------------------------------|----------------8-8-8-8-7-7-7-7|

Eb :-------------------------------|-------------------------------|
Bb :-------------------------------|-------------------------------|
Gb :-------------------------------|-------------------------------|
Db :-------------------------------|-------------------------------|
Ab :-------------------------------|------------------------8-8-8-8|
Db :6-6-6-6-6-6-6-6-3-3-3-3-3-3-3-3|0-0-0-0-2-2-2-2-3-3-3-3-*------|

Eb :-------------------------------|-------------------------------|
Bb :-------------------------------|-------------------------------|
Gb :-------------------------------|-------------------------------|
Db :-------------------------------|-------------------------------|
Ab :7-7-7-7-7-7-7-7-5-5-5-5-4-4-4-4|5-5-5-5-4-4-4-4-*--------------|
Db :-------------------------------|----------------8-8-8-8-7-7-7-7|

Eb :----------------|--------------------|--------------------|
Bb :----------------|--------------------|--------------------|
Gb :----------------|--------------------|--------------------|
Db :----------------|1-h4-p1-*-1-*-------|1-h4-p1-*-1-*-------|
Ab :7*7*6---6*6*3---|*-------5-*-5-4-1-*-|--------5-*-5-4-1-*-|
Db :7*7*6---6*6*3---|*-----------------4-|*-----------------4-|

Eb :----------------|--------------------|-------------------------------|
Bb :----------------|--------------------|-------------------------------|
Gb :----------------|--------------------|-------------------------------|
Db :----------------|1-h4-p1-*-1-*-------|----------------6-6-6-6-*------|
Ab :1---*-3---*-4---|*-------5-*-5-4-1-*-|3-3-3-3-5-5-5-5-*-------5-5-5-5|
Db :1---*-3---*-4---|*-----------------4-|*------------------------------|

Eb :--------------------|----------------|--------------------|
Bb :--------------------|----------------|--------------------|
Gb :--------------------|----------------|--------------------|
Db :1-h4-p1-*-1-*-------|----------------|1-h4-p1-*-1-*-------|
Ab :*-------5-*-5-4-1-*-|1---*-3---*-4---|*-------5-*-5-4-1-*-|
Db :------------------4-|1---*-3---*-4---|*-----------------4-|

Eb :----------------|--------------------|--------------------|
Bb :----------------|--------------------|--------------------|
Gb :----------------|--------------------|--------------------|
Db :----------------|------6-h7-p6-*-6-*-|--------------------|
Ab :4-*-3-*-1-*-0-*-|5*7*8*--------8*-*8*|7*5-h7-p5-*-5-*-----|
Db :4-*-3-*-1-*-0-*-|--------------------|----------8*--8*7*5*|

Eb :--------------------|-----------------------------|--------------------|
Bb :--------------------|-----------------------------|--------------------|
Gb :--------------------|-----------------------------|--------------------|
Db :------6-h7-p6-*-6-*-|-----------------------------|------6-h7-p6-*-6-*-|
Ab :5*7*8*--------8*-*8*|7*5-5-5-5-5-5-4-4-4-4-*------|5*7*8*--------8*-*8*|
Db :--------------------|----------------------8-8-8-8|*-------------------|

Eb :--------------------|--------------------|-----------------------------|
Bb :--------------------|--------------------|-----------------------------|
Gb :--------------------|--------------------|-----------------------------|
Db :--------------------|------6-h7-p6-*-6-*-|-----------------------------|
Ab :7*5-h7-p5-*-5-*-----|5*7*8*--------8*-*8*|7*5-5-5-5-5-5-4-4-4-4-*------|
Db :----------8*--8*7*5*|--------------------|----------------------8-8-8-8|

Eb :-------------------------------|-------------------------------|
Bb :-------------------------------|-------------------------------|
Gb :-------------------------------|-------------------------------|
Db :-------------------------------|-------------------------------|
Ab :*-----------------------8-8-8-8|7-7-7-7-7-7-7-7-5-5-5-5-4-4-4-4|
Db :0-0-0-0-2-2-2-2-3-3-3-3-*------|-------------------------------|

Eb :-------------------------------|-------------------------------|
Bb :-------------------------------|-------------------------------|
Gb :-------------------------------|-------------------------------|
Db :-------------------------------|-------------------------------|
Ab :5-5-5-5-4-4-4-4-*--------------|-------------------------------|
Db :----------------8-8-8-8-7-7-7-7|6-6-6-6-6-6-6-6-3-3-3-3-3-3-3-3|

Eb :-------------------------------|-------------------------------|
Bb :-------------------------------|-------------------------------|
Gb :-------------------------------|-------------------------------|
Db :-------------------------------|-------------------------------|
Ab :------------------------8-8-8-8|7-7-7-7-7-7-7-7-5-5-5-5-4-4-4-4|
Db :0-0-0-0-2-2-2-2-3-3-3-3-*------|-------------------------------|

Eb :-------------------------------|----------------|
Bb :-------------------------------|----------------|
Gb :-------------------------------|----------------|
Db :-------------------------------|----------------|
Ab :5-5-5-5-4-4-4-4-*--------------|7*7*6---6*6*3---|
Db :----------------8-8-8-8-7-7-7-7|7*7*6---6*6*3---|

Eb :-------------------------------|-------------------------------|
Bb :-------------------------------|-------------------------------|
Gb :-------------------------------|-------------------------------|
Db :-------------------------------|-------------------------------|
Ab :*-----------------------8-8-8-8|7-7-7-7-7-7-7-7-5-5-5-5-4-4-4-4|
Db :0-0-0-0-2-2-2-2-3-3-3-3-*------|-------------------------------|

Eb :-------------------------------|-------------------------------|
Bb :-------------------------------|-------------------------------|
Gb :-------------------------------|-------------------------------|
Db :-------------------------------|-------------------------------|
Ab :5-5-5-5-4-4-4-4-*--------------|-------------------------------|
Db :----------------8-8-8-8-7-7-7-7|6-6-6-6-6-6-6-6-3-3-3-3-3-3-3-3|

Eb :-------------------------------|-------------------------------|
Bb :-------------------------------|-------------------------------|
Gb :-------------------------------|-------------------------------|
Db :-------------------------------|-------------------------------|
Ab :------------------------8-8-8-8|7-7-7-7-7-7-7-7-5-5-5-5-4-4-4-4|
Db :0-0-0-0-2-2-2-2-3-3-3-3-*------|-------------------------------|

Eb :-------------------------------|----------------|--------------------|
Bb :-------------------------------|----------------|--------------------|
Gb :-------------------------------|----------------|--------------------|
Db :-------------------------------|----------------|1-h4-p1-*-1-*-------|
Ab :5-5-5-5-4-4-4-4-*--------------|7*7*6---6*6*3---|*-------5-*-5-4-1-*-|
Db :----------------8-8-8-8-7-7-7-7|7*7*6---6*6*3---|*-----------------4-|

Eb :--------------------|----------------|--------------------|
Bb :--------------------|----------------|--------------------|
Gb :--------------------|----------------|--------------------|
Db :1-h4-p1-*-1-*-------|----------------|1-h4-p1-*-1-*-------|
Ab :--------5-*-5-4-1-*-|1---*-3---*-4---|*-------5-*-5-4-1-*-|
Db :*-----------------4-|1---*-3---*-4---|*-----------------4-|

Eb :-------------------------------|--------------------|----------------|
Bb :-------------------------------|--------------------|----------------|
Gb :-------------------------------|--------------------|----------------|
Db :----------------6-6-6-6-*------|1-h4-p1-*-1-*-------|----------------|
Ab :3-3-3-3-5-5-5-5-*-------5-5-5-5|*-------5-*-5-4-1-*-|1---*-3---*-4---|
Db :*------------------------------|------------------4-|1---*-3---*-4---|

Eb :--------------------|----------------|--------------------|
Bb :--------------------|----------------|--------------------|
Gb :--------------------|----------------|--------------------|
Db :1-h4-p1-*-1-*-------|----------------|------6-h7-p6-*-6-*-|
Ab :*-------5-*-5-4-1-*-|4-*-3-*-1-*-0-*-|5*7*8*--------8*-*8*|
Db :*-----------------4-|4-*-3-*-1-*-0-*-|--------------------|

Eb :--------------------|--------------------|-----------------------------|
Bb :--------------------|--------------------|-----------------------------|
Gb :--------------------|--------------------|-----------------------------|
Db :--------------------|------6-h7-p6-*-6-*-|-----------------------------|
Ab :7*5-h7-p5-*-5-*-----|5*7*8*--------8*-*8*|7*5-5-5-5-5-5-4-4-4-4-*------|
Db :----------8*--8*7*5*|--------------------|----------------------8-8-8-8|

Eb :--------------------|--------------------|--------------------|
Bb :--------------------|--------------------|--------------------|
Gb :--------------------|--------------------|--------------------|
Db :------6-h7-p6-*-6-*-|--------------------|------6-h7-p6-*-6-*-|
Ab :5*7*8*--------8*-*8*|7*5-h7-p5-*-5-*-----|5*7*8*--------8*-*8*|
Db :*-------------------|----------8*--8*7*5*|--------------------|

Eb :-----------------------------|----------------|--------------------|
Bb :-----------------------------|----------------|--------------------|
Gb :-----------------------------|----------------|--------------------|
Db :-----------------------------|----------------|--------------------|
Ab :7*5-5-5-5-5-5-4-4-4-4-*------|----3-*-4-*-6-*-|7-*-6-*-4-*-3-h4-p3-|
Db :----------------------8-8-8-8|3*3*--3*--3*--3*|--3*--3*--3*--------|

Eb :----------------|--------------------|----------------|
Bb :----------------|--------------------|----------------|
Gb :----------------|--------------------|----------------|
Db :----------------|--------------------|----------------|
Ab :*---3-*-4-*-6-*-|7-*-6-*-4-*-3-h4-p3-|*---6-*-7-*-9-*-|
Db :3*3*--3*--3*--3*|--3*--3*--3*--------|6*6*--6*--6*--6*|

Eb :---------------------|----------------|
Bb :---------------------|----------------|
Gb :---------------------|----------------|
Db :---------------------|----------------|
Ab :10-*-9-*-7-*-6-h7-p6-|*---6-*-7-*-9-*-|
Db :---6*--6*--6*--------|6*6*--6*--6*--6*|

Eb :------------------------------------|----------------|
Bb :------------------------------------|----------------|
Gb :------------------------------------|----------------|
Db :------------------------------------|----------------|
Ab :7-h11-p7-6-h10-p6-*-----------------|----3-*-4-*-6-*-|
Db :------------------7-h11-p7-6-h10-p6-|3*3*--3*--3*--3*|

Eb :--------------------|----------------|--------------------|
Bb :--------------------|----------------|--------------------|
Gb :--------------------|----------------|--------------------|
Db :--------------------|----------------|--------------------|
Ab :7-*-6-*-4-*-3-h4-p3-|*---3-*-4-*-6-*-|7-*-6-*-4-*-3-h4-p3-|
Db :--3*--3*--3*--------|3*3*--3*--3*--3*|--3*--3*--3*--------|

Eb :----------------|---------------------|----------------|
Bb :----------------|---------------------|----------------|
Gb :----------------|---------------------|----------------|
Db :----------------|---------------------|----------------|
Ab :*---6-*-7-*-9-*-|10-*-9-*-7-*-6-h7-p6-|*---6-*-7-*-9-*-|
Db :6*6*--6*--6*--6*|---6*--6*--6*--------|6*6*--6*--6*--6*|

Eb :------------------------------------|------------------------|
Bb :------------------------------------|------------------------|
Gb :------------------------------------|------------------------|
Db :------------------------------------|------------------------|
Ab :7-h11-p7-6-h10-p6-*-----------------|------------------------|
Db :------------------7-h11-p7-6-h10-p6-|0-0-0-0-0-*-3-3-3-3-3-*-|

Eb :------------------------|--------------------|------------------------|
Bb :------------------------|--------------------|------------------------|
Gb :------------------------|--------------------|------------------------|
Db :------------------------|10-\9-9*9-\7-7*7-\6-|*-----------------------|
Ab :4-4-4-4-4-*-1-1-1-1-1-*-|-8-\7-7*7-\5-5*5-\4-|*-----------------------|
Db :------------------------|--------------------|0-0-0-0-0-*-3-3-3-3-3-*-|

Eb :------------------------|-----------------------|
Bb :------------------------|-----------------------|
Gb :------------------------|-----------------------|
Db :------------------------|-----------------------|
Ab :4-4-4-4-4-*-1-1-1-1-1-*-|11-\10-10*10-\8-8*8-\7-|
Db :------------------------|11-\10-10*10-\8-8*8-\7-|

Eb :------------------------|------------------------|--------------------|
Bb :------------------------|------------------------|--------------------|
Gb :------------------------|------------------------|--------------------|
Db :------------------------|------------------------|10-\9-9*9-\7-7*7-\6-|
Ab :*-----------------------|4-4-4-4-4-*-1-1-1-1-1-*-|-8-\7-7*7-\5-5*5-\4-|
Db :0-0-0-0-0-*-3-3-3-3-3-*-|------------------------|--------------------|

Eb :------------------------|------------------------|
Bb :------------------------|------------------------|
Gb :------------------------|------------------------|
Db :*-----------------------|------------------------|
Ab :*-----------------------|4-4-4-4-4-*-1-1-1-1-1-*-|
Db :0-0-0-0-0-*-3-3-3-3-3-*-|------------------------|

Eb :-----------------------|------------------------|
Bb :-----------------------|------------------------|
Gb :-----------------------|------------------------|
Db :-----------------------|------------------------|
Ab :11-\10-10*10-\8-8*8-\7-|*-----------------------|
Db :11-\10-10*10-\8-8*8-\7-|0-0-0-0-0-*-3-3-3-3-3-*-|

Eb :------------------------|--------------------|------------------------|
Bb :------------------------|--------------------|------------------------|
Gb :------------------------|--------------------|------------------------|
Db :------------------------|10-\9-9*9-\7-7*7-\6-|*-----------------------|
Ab :4-4-4-4-4-*-1-1-1-1-1-*-|-8-\7-7*7-\5-5*5-\4-|*-----------------------|
Db :------------------------|--------------------|0-0-0-0-0-*-3-3-3-3-3-*-|

Eb :------------------------|-----------------------|
Bb :------------------------|-----------------------|
Gb :------------------------|-----------------------|
Db :------------------------|-----------------------|
Ab :4-4-4-4-4-*-1-1-1-1-1-*-|11-\10-10*10-\8-8*8-\7-|
Db :------------------------|11-\10-10*10-\8-8*8-\7-|

Eb :------------------------|------------------------|--------------------|
Bb :------------------------|------------------------|--------------------|
Gb :------------------------|------------------------|--------------------|
Db :------------------------|------------------------|10-\9-9*9-\7-7*7-\6-|
Ab :*-----------------------|4-4-4-4-4-*-1-1-1-1-1-*-|-8-\7-7*7-\5-5*5-\4-|
Db :0-0-0-0-0-*-3-3-3-3-3-*-|------------------------|--------------------|

Eb :------------------------|------------------------|
Bb :------------------------|------------------------|
Gb :------------------------|------------------------|
Db :*-----------------------|------------------------|
Ab :*-----------------------|4-4-4-4-4-*-1-1-1-1-1-*-|
Db :0-0-0-0-0-*-3-3-3-3-3-*-|------------------------|

Eb :-----------------------|----------------|----------------|
Bb :-----------------------|----------------|----------------|
Gb :-----------------------|----------------|----------------|
Db :-----------------------|0-----------0*0*|3-----------3*3*|
Ab :11-\10-10*10-\8-8*8-\7-|0-----------0*0*|0-----------0*0*|
Db :11-\10-10*10-\8-8*8-\7-|0-----------0*0*|0-----------0*0*|

Eb :----------------|----------------|----------------|----------------|
Bb :----------------|----------------|----------------|----------------|
Gb :----------------|----------------|----------------|----------------|
Db :4-----------4*4*|1--*--1--*--1-*-|0-----------0*0*|3-----------3*3*|
Ab :1-----------1*1*|1--*--1--*--1-*-|0-----------0*0*|0-----------0*0*|
Db :1-----------1*1*|1--*--1--*--1-*-|0-----------0*0*|0-----------0*0*|

Eb :----------------|----------------|----------------|----------------|
Bb :----------------|----------------|----------------|----------------|
Gb :----------------|----------------|----------------|----------------|
Db :4-----------4*4*|1--*--1--*--1-*-|0-----------0*0*|3-----------3*3*|
Ab :1-----------1*1*|1--*--1--*--1-*-|0-----------0*0*|0-----------0*0*|
Db :1-----------1*1*|1--*--1--*--1-*-|0-----------0*0*|0-----------0*0*|

Eb :----------------|----------------|----------------|----------------|
Bb :----------------|----------------|----------------|----------------|
Gb :----------------|----------------|----------------|----------------|
Db :4-----------4*4*|1--*--1--*--1-*-|0-----------0*0*|3-----------3*3*|
Ab :1-----------1*1*|1--*--1--*--1-*-|0-----------0*0*|0-----------0*0*|
Db :1-----------1*1*|1--*--1--*--1-*-|0-----------0*0*|0-----------0*0*|

Eb :----------------|----------------|----------------|----------------|
Bb :----------------|----------------|----------------|----------------|
Gb :----------------|----------------|----------------|----------------|
Db :4-----------4*4*|1-*-1-*-1-*-1-*-|----------------|----------------|
Ab :1-----------1*1*|1-*-1-*-1-*-1-*-|5---7-*-8-*-7-*-|5-*-4-*-5-*-7-*-|
Db :1-----------1*1*|1-*-1-*-1-*-1-*-|5---7-*-8-*-7-*-|5-*-4-*-5-*-7-*-|

Eb :-------------------|--------------------|----------------|
Bb :-------------------|--------------------|----------------|
Gb :-------------------|--------------------|----------------|
Db :-------------------|--------------------|----------------|
Ab :8-*----------------|--------------------|5---7-*-8-*-7-*-|
Db :8-*-/12---11---8---|11-~-------~------~-|5---7-*-8-*-7-*-|

Eb :----------------|-----------------------|--------------------|
Bb :----------------|-----------------------|--------------------|
Gb :----------------|-----------------------|--------------------|
Db :----------------|-----------------------|--------------------|
Ab :5-*-4-*-1-*-4-*-|1-1-1-1-1-*-1-*-4-4-4-4|4-*-1-*-0-0-0-0-0-*-|
Db :5-*-4-*-1-*-4-*-|1-1-1-1-1-*-1-*-4-4-4-4|4-*-1-*-0-0-0-0-0-*-|

Eb :----------------|----------------|-------------------|
Bb :----------------|----------------|-------------------|
Gb :----------------|----------------|-------------------|
Db :----------------|----------------|-------------------|
Ab :5---7-*-8-*-7-*-|5-*-4-*-5-*-7-*-|8-*----------------|
Db :5---7-*-8-*-7-*-|5-*-4-*-5-*-7-*-|8-*-/12---11---8---|

Eb :--------------------|----------------|----------------|
Bb :--------------------|----------------|----------------|
Gb :--------------------|----------------|----------------|
Db :--------------------|----------------|----------------|
Ab :--------------------|5---7-*-8-*-7-*-|5-*-4-*-1-*-4-*-|
Db :11-~-------~------~-|5---7-*-8-*-7-*-|5-*-4-*-1-*-4-*-|

Eb :-----------------------|--------------------|
Bb :-----------------------|--------------------|
Gb :-----------------------|--------------------|
Db :-----------------------|--------------------|
Ab :1-1-1-1-1-*-1-*-4-4-4-4|4-*-1-*-0-0-0-0-0-*-|
Db :1-1-1-1-1-*-1-*-4-4-4-4|4-*-1-*-0-0-0-0-0-*-|

Eb :-------------------------------|-------------------------------|
Bb :-------------------------------|-------------------------------|
Gb :-------------------------------|-------------------------------|
Db :-------------------------------|-------------------------------|
Ab :-------------------------------|-------------------------------|
Db :5-5-5-5-7-7-7-7-8-8-8-8-7-7-7-7|5-5-5-5-4-4-4-4-5-5-5-5-7-7-7-7|

Eb :---------------------------------------|
Bb :---------------------------------------|
Gb :---------------------------------------|
Db :---------------------------------------|
Ab :---------------------------------------|
Db :8-8-8-8-12-12-12-12-11-11-11-11-8-8-8-8|

Eb :-----------------------------------------------|
Bb :-----------------------------------------------|
Gb :-----------------------------------------------|
Db :-----------------------------------------------|
Ab :-----------------------------------------------|
Db :11-11-11-11-11-11-11-11-11-11-11-11-11-11-11-11|

Eb :-------------------------------|-------------------------------|
Bb :-------------------------------|-------------------------------|
Gb :-------------------------------|-------------------------------|
Db :-------------------------------|-------------------------------|
Ab :-------------------------------|-------------------------------|
Db :5-5-5-5-7-7-7-7-8-8-8-8-7-7-7-7|5-5-5-5-4-4-4-4-1-1-1-1-4-4-4-4|

Eb :-------------------------------|-------------------------------|
Bb :-------------------------------|-------------------------------|
Gb :-------------------------------|-------------------------------|
Db :-------------------------------|-------------------------------|
Ab :-------------------------------|-------------------------------|
Db :1-1-1-1-1-1-1-1-1-1-1-1-4-4-1-1|0-0-0-0-0-0-0-0-0-0-0-0-0-0-0-0|

Eb :-------------------------------|-------------------------------|
Bb :-------------------------------|-------------------------------|
Gb :-------------------------------|-------------------------------|
Db :-------------------------------|-------------------------------|
Ab :-------------------------------|-------------------------------|
Db :5-5-5-5-7-7-7-7-8-8-8-8-7-7-7-7|5-5-5-5-4-4-4-4-5-5-5-5-7-7-7-7|

Eb :---------------------------------------|
Bb :---------------------------------------|
Gb :---------------------------------------|
Db :---------------------------------------|
Ab :---------------------------------------|
Db :8-8-8-8-12-12-12-12-11-11-11-11-8-8-8-8|

Eb :-----------------------------------------------|
Bb :-----------------------------------------------|
Gb :-----------------------------------------------|
Db :-----------------------------------------------|
Ab :-----------------------------------------------|
Db :11-11-11-11-11-11-11-11-11-11-11-11-11-11-11-11|

Eb :-------------------------------|-------------------------------|
Bb :-------------------------------|-------------------------------|
Gb :-------------------------------|-------------------------------|
Db :-------------------------------|-------------------------------|
Ab :-------------------------------|-------------------------------|
Db :5-5-5-5-7-7-7-7-8-8-8-8-7-7-7-7|5-5-5-5-4-4-4-4-1-1-1-1-4-4-4-4|

Eb :-------------------------------|-------------------------------|
Bb :-------------------------------|-------------------------------|
Gb :-------------------------------|-------------------------------|
Db :-------------------------------|-------------------------------|
Ab :-------------------------------|-------------------------------|
Db :1-1-1-1-1-1-1-1-1-1-1-1-4-4-1-1|0-0-0-0-0-0-0-0-0-0-0-0-0-0-0-0|

Eb :-------------------------------|-------------------------------|
Bb :-------------------------------|-------------------------------|
Gb :-------------------------------|-------------------------------|
Db :-------------------------------|-------------------------------|
Ab :5-5-5-5-5-5-5-5-7-7-7-7-8-8-8-8|8-8-8-8-8-8-8-8-7-7-7-7-5-5-5-5|
Db :*------------------------------|-------------------------------|

Eb :-------------------------------|-------------------------------|
Bb :-------------------------------|-------------------------------|
Gb :-------------------------------|-------------------------------|
Db :-------------------------------|-------------------------------|
Ab :4-4-4-4-4-4-4-4-5-5-5-5-7-7-7-7|7-7-7-7-7-7-7-7-5-5-5-5-4-4-4-4|
Db :-------------------------------|-------------------------------|

Eb :-------------------------------|-------------------------------|
Bb :-------------------------------|-------------------------------|
Gb :-------------------------------|-------------------------------|
Db :-------------------------------|-------------------------------|
Ab :5-5-5-5-5-5-5-5-7-7-7-7-8-8-8-8|8-8-8-8-8-8-8-8-7-7-7-7-5-5-5-5|
Db :*------------------------------|-------------------------------|

Eb :-------------------------------|-------------------------------|
Bb :-------------------------------|-------------------------------|
Gb :-------------------------------|-------------------------------|
Db :-------------------------------|-------------------------------|
Ab :4-4-4-4-4-4-4-4-5-5-5-5-7-7-7-7|7-7-7-7-7-7-7-7-5-5-5-5-4-4-4-4|
Db :-------------------------------|-------------------------------|

Eb :-------------------------------|-------------------------------|
Bb :-------------------------------|-------------------------------|
Gb :-------------------------------|-------------------------------|
Db :-------------------------------|-------------------------------|
Ab :5-5-5-5-5-5-5-5-7-7-7-7-8-8-8-8|8-8-8-8-8-8-8-8-7-7-7-7-5-5-5-5|
Db :*------------------------------|-------------------------------|

Eb :-------------------------------|-------------------------------|
Bb :-------------------------------|-------------------------------|
Gb :-------------------------------|-------------------------------|
Db :-------------------------------|-------------------------------|
Ab :4-4-4-4-4-4-4-4-5-5-5-5-7-7-7-7|7-7-7-7-7-7-7-7-5-5-5-5-4-4-4-4|
Db :-------------------------------|-------------------------------|

Eb :----------------|----------------|-----------------|------------------|
Bb :----------------|----------------|-----------------|------------------|
Gb :3---------------|----------------|-*---------------|------------------|
Db :3---------------|----------------|/7-----6---*-3---|/7-----6---*-10---|
Ab :1---------------|----------------|/5-----4---*-1---|/5-----4---*--8---|
Db :----------------|----------------|-----------------|------------------|

Eb :-------------------------------|-------------------------------|
Bb :-------------------------------|-------------------------------|
Gb :-------------------------------|-------------------------------|
Db :*------------------------------|-------------------------------|
Ab :5-5-5-5-5-5-5-5-7-7-7-7-8-8-8-8|8-8-8-8-8-8-8-8-7-7-7-7-5-5-5-5|
Db :*------------------------------|-------------------------------|

Eb :-------------------------------|-------------------------------|
Bb :-------------------------------|-------------------------------|
Gb :-------------------------------|-------------------------------|
Db :-------------------------------|-------------------------------|
Ab :4-4-4-4-4-4-4-4-5-5-5-5-7-7-7-7|7-7-7-7-7-7-7-7-5-5-5-5-4-4-4-4|
Db :-------------------------------|-------------------------------|

Eb :----------------|----------------|-----------------|------------------|
Bb :----------------|----------------|-----------------|------------------|
Gb :3---------------|----------------|-*---------------|------------------|
Db :3---------------|----------------|/7-----6---*-3---|/7-----6---*-10---|
Ab :1---------------|----------------|/5-----4---*-1---|/5-----4---*--8---|
Db :----------------|----------------|-----------------|------------------|

Eb :-------------------------------|-------------------------------|
Bb :-------------------------------|-------------------------------|
Gb :-------------------------------|-------------------------------|
Db :*------------------------------|-------------------------------|
Ab :5-5-5-5-5-5-5-5-7-7-7-7-8-8-8-8|8-8-8-8-8-8-8-8-7-7-7-7-5-5-5-5|
Db :*------------------------------|-------------------------------|

Eb :-------------------------------|-------------------------------|
Bb :-------------------------------|-------------------------------|
Gb :-------------------------------|-------------------------------|
Db :-------------------------------|-------------------------------|
Ab :4-4-4-4-4-4-4-4-5-5-5-5-7-7-7-7|7-7-7-7-7-7-7-7-5-5-5-5-4-4-4-4|
Db :-------------------------------|-------------------------------|

Eb :----------------|----------------|-----------------|------------------|
Bb :----------------|----------------|-----------------|------------------|
Gb :3---------------|----------------|-*---------------|------------------|
Db :3---------------|----------------|/7-----6---*-3---|/7-----6---*-10---|
Ab :1---------------|----------------|/5-----4---*-1---|/5-----4---*--8---|
Db :----------------|----------------|-----------------|------------------|

Eb :----------------|----------------|----------------|----------------|
Bb :----------------|----------------|----------------|----------------|
Gb :3---------------|----------------|5---------------|----------------|
Db :3---------------|----------------|5---------------|----------------|
Ab :1---------------|----------------|3---------------|----------------|
Db :----------------|----------------|----------------|----------------|

Eb :----------------|----------------|----------------|----------------|
Bb :----------------|----------------|----------------|----------------|
Gb :7-----7-----7---|----------------|----------------|*---------------|
Db :7-----7-----7---|----------------|----------------|*---------------|
Ab :5-----5-----5---|----------------|----------------|*---------------|
Db :----------------|----------------|----------------|----------------|

            
            
Suggest correction
Creating personal tab
Creating personal tab
You can edit any tab online and save it as your Personal.

You can edit, replace or remove any tab part or add personal notes – all changes will be seen only by you.

Personal tabs can be accessed anytime from any device, even offline.
Learn more »
Give kudos to tab author, rate the tab!
1 2 3 4 5
comments
print report bad tab
1 comment total.
0 reply
rhampster 132 Mar 04, 2009 11:23 AM

tab the solo
i could do it if i could figure it out

guest
You may want to rate the tab now too:
select rating
Wanna post a correction for this tab? Suggest correction