Oops, an error
Loading. Please wait.

Youre A Germ tab

version 2
version 2

Whole song

732 views 3 this week
no commentswrite comment
1 2 3 4 5
1 last vote to show rating
add to favorites
×
Save as Personal and add changes to this tab that will be seen only by you. Learn more ›
×
You can save this tab as Personal to edit and correct it or add notes. All changes will be seen only by you. Learn more »
launch autoscroll
font size
0
reset
how to read this tab
guitar tuner
edit
Autoscroll
slow
fast
+/-
esc
set tempo
stop
Author
Difficulty
--------------------------------------------------------------------------------------------------------------
                                  Wolf Alice – You’re a Germ
--------------------------------------------------------------------------------------------------------------
Key – G
Tuning – Rhythm Guitar -Standard

Rhythm Guitar: Intro and verse pattern
e|-----------------------------------------------------
B|-----------------------------------------------------
G|-----------------------------------------------------
D|5-5--5-5-5--5-5-5--5-5-5--9-9-9--9-9-9--9-9-9--9-9-9-
A|5-5--5-5-5--5-5-5--5-5-5--9-9-9--9-9-9--9-9-9--9-9-9-
E|3-3--3-3-3--3-3-3--3-3-3--7-7-7--7-7-7--7-7-7--7-7-7-
e|-------------------------------------------------------
B|-------------------------------------------------------
G|-------------------------------------------------------
D|5-5-5--5-5-5--5-5-5--5-5-5--9-9-9--9-9-9--9-9-9--9-9-9-
A|5-5-5--5-5-5--5-5-5--5-5-5--9-9-9--9-9-9--9-9-9--9-9-9-
E|3-3-3--3-3-3--3-3-3--3-3-3--7-7-7--7-7-7--7-7-7--7-7-7-
e|-------------------------------------------------------
B|-------------------------------------------------------
G|-------------------------------------------------------
D|5-5-5--5-5-5--5-5-5--5-5-5--8-8-8--8-8-8--8-8-8--8-8-8-
A|5-5-5--5-5-5--5-5-5--5-5-5--8-8-8--8-8-8--8-8-8--8-8-8-
E|3-3-3--3-3-3--3-3-3--3-3-3--6-6-6--6-6-6--6-6-6--6-6-6-
e|-------------------------------------------------------|
B|-------------------------------------------------------|
G|-------------------------------------------------------|
D|5-5-5--5-5-5--5-5-5--5-5-5--8-8-8--8-8-8--8-8-8--8-8-8-|
A|5-5-5--5-5-5--5-5-5--5-5-5--8-8-8--8-8-8--8-8-8--8-8-8-|
E|3-3-3--3-3-3--3-3-3--3-3-3--6-6-6--6-6-6--6-6-6--6-6-6-|

Rhythm Guitar - Instrumental passage / stabs
e|--------------------------------------------------------------------------------------------------------|
B|--------------------------------------------------------------------------------------------------------|
G|--------------------------------------------------------------------------------------------------------|
D|5-5----5-5----8-8----8-8--------5-5-5-5-5-5-5-5-5-5-5-5-5-5-5-5-8-8-8-8-8-8-8-8-10-10-10-12-12-12-12-12-|
A|5-5----5-5----8-8----8-8--------5-5-5-5-5-5-5-5-5-5-5-5-5-5-5-5-8-8-8-8-8-8-8-8-10-10-10-12-12-12-12-12-|
E|3-3----3-5----6-6----6-6--------3-3-3-3-3-3-3-3-3-3-3-3-3-3-3-3-6-6-6-6-6-6-6-6-8--8--8--10-10-10-10-10-|

Lead Guitar - Instrumental passage / stabs
e|----5-----5-1-----5------5--1---3-3-3-3-3-3-3-3-3-3-3-3-3-3-3-3-5-5-5-5-5-5-5-5-4-4-4-4-10-10-10-10|
B|--------------------------------0-0-0-0-0-0-0-0-0-0-0-0-0-0-0-0-0-0-0-0-0-0-0-0-0-0-0-0--0--0--0--0|
G|---------------------------------------------------------------------------------------------------|
D|---------------------------------------------------------------------------------------------------|
A|---------------------------------------------------------------------------------------------------|
E|---------------------------------------------------------------------------------------------------|

Rhythm Guitar - Instrumental passage with oohs
e|----------------------------------------------------------------|
B|----------------------------------------------------------------|
G|----------------------------------------------------------------|
D|----------------------------------------------------------------|
A|5-5-5-5-5-5-5-5-5-5-5-5-5-5-5-5-9-9-9-9-9-9-9-9-9-9-9-9-9-9-9-9-| x2
E|3-3-3-3-3-3-3-3-3-3-3-3-3-3-3-3-7-7-7-7-7-7-7-7-7-7-7-7-7-7-7-7-|

Lead Guitar - Instrumental passage with oohs
e|3-3-3-3-3-3-3-3-3-3-3-3-3-5-5-5-2-2-2-2-2-2-2-2-2-2-2-2-2-0-0-0-|
B|0-0-0-0-0-0-0-0-0-0-0-0-0-0-0-0-0-0-0-0-0-0-0-0-0-0-0-0-0-0-0-0-|
G|----------------------------------------------------------------|
D|----------------------------------------------------------------| x2
A|----------------------------------------------------------------|
E|----------------------------------------------------------------|

Lead guitar verse pattern:
e|3-3--3-3-3--3-3-3--3-3--5-5-5--2-2--2-2-2--2-2-2--2-2--0-0-0-|
B|0-0--0-0-0--0-0-0--0-0--0-0-0--0-0--0-0-0--0-0-0--0-0--0-0-0-|
G|-------------------------------------------------------------|
D|-------------------------------------------------------------| x2
A|-------------------------------------------------------------|
E|-------------------------------------------------------------|
e|3-3--3-3--3-3--3-3--3-3--3-3--3-3--3-3-6-6-6-6-6-6-6-6-8-8-8-8-8-8-8-8-|
B|0-0--0-0--0-0--0-0--0-0--0-0--0-0--0-0-6-6-6-6-6-6-6-6-6-6-6-6-6-6-6-6-|
G|-----------------------------------------------------------------------|
D|-----------------------------------------------------------------------| x2
A|-----------------------------------------------------------------------|
E|-----------------------------------------------------------------------|

Rhythm Guitar Bridge (‘one, two, three, four, five, six, seven!)
e|--------------------------------------------------|
B|--------------------------------------------------|
G|--------------------------------------------------|
D|--------------------------------------------------|
A|5-5-5-5-5-5-5-5-5-5-5-5-5-5-5-5-5-5-5-5-5-5-5-5-5-|
E|3-3-3-3-3-3-3-3-3-3-3-3-3-3-3-3-3-3-3-3-3-3-3-3-3-|

Lead Guitar Bridge (‘one, two, three, four, five, six, seven!)
e|--------------------------------------------------|
B|20-20-20-20-20-20-20-20-20-20-20-20-20-20-20-20-20|
G|-x--x--x--x--x--x--x--x--x--x--x--x--x--x--x--x--x|
D|-x--x--x--x--x--x--x--x--x--x--x--x--x--x--x--x--x|
A|-x--x--x--x--x--x--x--x--x--x--x--x--x--x--x--x--x|
E|-x--x--x--x--x--x--x--x--x--x--x--x--x--x--x--x--x|

Rhythm/Lead Guitar - Chorus.
e|--------------------------|
B|--------------------------|
G|-----7-7-7-7------5-5-5-5-|
D|5-5--7-7-7-7--5-5-5-5-5-5-| x4
A|5-5--5-5-5-5--5-5-3-3-3-3-|
E|3-3-----------3-3---------|

Lead Guitar/ Second half of final chorus –
e|--------------------------------------------------|
B|-8--8--8--8--8--8--8--8--8--8--8--8--8--8--8--8--8|
G|12-11-12-11-12-11-12-11-12-11-12-11-12-11-12-11-12|
D|--------------------------------------------------|
A|--------------------------------------------------|
E|--------------------------------------------------|

Outro/Both guitars (HAHAHAHAHAHAHAHAHA)
e|----------------------------------|
B|----------------------------------|
G|----------------------------------|
D|----------------------------------|
A|----------------------------------|
E|3-3-3-3-3-3-3-3-3-3-3-3-3-3-3-3-3-|

Structure:
Intro
Instrumental/ Stabs
Instrumental/ Ohhs
Verse
Bridge
Chorus
Verse
Bridge
Double Chorus
outro

            
            
Suggest correction
Creating personal tab
Creating personal tab
You can edit any tab online and save it as your Personal.

You can edit, replace or remove any tab part or add personal notes – all changes will be seen only by you.

Personal tabs can be accessed anytime from any device, even offline.
Learn more »
Give kudos to tab author, rate the tab!
1 2 3 4 5
comments
print report bad tab
guest
You may want to rate the tab now too:
select rating
Wanna post a correction for this tab? Suggest correction