Oops, an error
Loading. Please wait.

Modern World solo tab

version 1
version 1

Solo

Whole song

4,969 views 3 this week
4 commentsread comments
1 2 3 4 5
x 6
add to favorites
×
Save as Personal and add changes to this tab that will be seen only by you. Learn more ›
×
You can save this tab as Personal to edit and correct it or add notes. All changes will be seen only by you. Learn more »
launch autoscroll
font size
0
reset
how to read this tab
guitar tuner
edit
Autoscroll
slow
fast
+/-
esc
set tempo
stop
Author
Difficulty
-----------------------------------------------------------------------
                             Modern World – Wolf Parade
-----------------------------------------------------------------------
Tabbed by: Jarrod Nixon
Email: nixonjalltheway@yahoo.com

Tuning: normal
This isn’t the whole song; this is just that really incredible rift that is played 
the second half of the song. The one that was put up already was a bunch of crap- this is how 
really is
e|---------------------------------------------------------------------|
B|-------------------------------------6-------------------------------|
G|--------------------------------7------------------------------------|
D|---3------5--7----3------7---8--------7------------------------------|
A|---------------------------------------------------------------------|
E|-1----3/5--------------5---------------------------------------------|

e|---------------------------------------------------------------------|
B|-------------------------------------6-------------------------------|
G|--------------------------------7------------------------------------|
D|---3------5--7----3------7---8--------7------------------------------|
A|---------------------------------------------------------------------|
E|-1----3/5--------------5---------------------------------------------|

e|---------------------------------------------------------------------|
B|-------------------------------------6-------------------------------|
G|--------------------------------7------------------------------------|
D|---3------5--7----3------7---8--------7------------------------------|
A|---------------------------------------------------------------------|
E|-1----3/5--------------5---------------------------------------------|

e|---------------------------------------------------------------------|
B|-------------------------------------6-------------------------------|
G|--------------------------------7------------------------------------|
D|---3------5--7----3------7---8--------7------------------------------|
A|---------------------------------------------------------------------|
E|-1----3/5--------------5---------------------------------------------|

| /  slide up
| \  slide down
| h  hammer-on
| p  pull-off
| ~  vibrato
| +  harmonic
| x  Mute note
===============================================================================

Rate it well; this was sort of hard to make, as it was my first tab and my predicessor 
such a shit job making it. I based none of this tab on his efforts

            
            
Suggest correction
Creating personal tab
Creating personal tab
You can edit any tab online and save it as your Personal.

You can edit, replace or remove any tab part or add personal notes – all changes will be seen only by you.

Personal tabs can be accessed anytime from any device, even offline.
Learn more »
comments
print report bad tab
4 comments total. Showing first comments.
0 reply
Azraelclaw 40 Jul 24, 2007 08:33 AM

The Song is all strings tuned down one full step.
Heh.

0 reply
Kaileida 21 Oct 04, 2008 11:11 AM

first off, no. this is wrong.
secondly, no need to put down another guitarist who (also) got it wrong. he was closer than you anyway, and that's not what this site is for.
thirdly, it's tuned down two semitones.
agggh the more I play this tab, the wronger it sounds.
in summary, don't be an ******* when you can't even get it right.

+3 reply
Kaileida 21 Oct 11, 2008 04:48 AM

Alright, for the record.

e|3-3----------0-0---------
B|0-0-----0----0-0------8p0
G|0-0-------0--0-0----9----
D|0-0---7------2-2---------
A|2-2----------2-2---------
E|3-3/7-------------8------

Don't believe me?
http://www.youtube.com/watch?v=zPPmKzNfOjs

guest
You may want to rate the tab now too:
select rating
Wanna post a correction for this tab? Suggest correction