Oops, an error
Loading. Please wait.

Lacrymosa tab

version 1
version 1

Whole song

17,450 views 18 this week
4 commentsread comments
1 2 3 4 5
x 3
add to favorites
×
Save as Personal and add changes to this tab that will be seen only by you. Learn more ›
×
You can save this tab as Personal to edit and correct it or add notes. All changes will be seen only by you. Learn more »
launch autoscroll
font size
0
reset
how to read this tab
guitar tuner
edit
Autoscroll
slow
fast
+/-
esc
set tempo
stop
Author
Difficulty
-----------------------------------------------------------------------------
                Lacrymosa - W. A. Mozart
-----------------------------------------------------------------------------
Tabbed by: Dallas Blackwell
Email: Mdvayne923@yahoo.com
Time Signature: 12/8
Tuning: Gtr. 1 EAC#GBe Gtr. 2 EADGBe

Additional information: Guitar 1 is playing the Soprano and Alto voices.   
  Guitar 2 is playing the Treble line. One of the Basses will be playing the  
  bass line and the other will play the Bass voice line.

Items optional: Chourus sound, Orchestra sound for guitar 2 and
  bass 2(strings), and a Bass octave pedal.

12/8
  Guitar 1
  1  2  3  4  5  6  7  8  9  10 11 12  1  2  3  4  5  6  7  8  9  10 11 12
e|------------------------------------|------------------------------------||
B|------------------------------------|------------------------------------||
G|------------------------------------|------------------------------------||
C#.-----------w-----------r-----------|.-----------w-----------r-----------||
A|------------------------------------|------------------------------------||
E|------------------------------------|------------------------------------||
                                                                           ||
  Guitar 2                                                                 ||
  1  2  3  4  5  6  7  8  9  10 11 12  1  2  3  4  5  6  7  8  9  10 11 12 ||
e|------------5--6--------------8--6--|---5--10----6--3--------------5-----||
B|---2--3-----------------------------|---------------------5--6-----------||
G|---------------------7--6--5=====---|8=====---------------------------6--||
D|3=====---5=====---5=====---5=====---|---------2=====---------------------||
A|5=====---8=====---7=====------------|8=====------------5=====---5=====---||
E|------------------------------------|---------3=====---5=====---5=====---||

  1  2  3  4  5  6  7  8  9  10 11 12  1  2  3  4  5  6  7  8  9  10 11 12
e|------------1-----------------------|------------1-----------------------||
B|---------------3--3=======-2--q--r--|---------------3--3=======-2--q--r--||
G|2==========----2--0=======-0--q--r--|2==========----2--0=======-0--q--r--||
C#4==========-1-----------------------|4==========-1-----------------------||
A|5==========-0-----1=======-0--q--r--|5==========-0-----1=======-0--q--r--||
E|---------------1--------------------|---------------1--------------------||
                                                                           ||
  1  2  3  4  5  6  7  8  9  10 11 12  1  2  3  4  5  6  7  8  9  10 11 12 ||
e|------------5--6--------------6--5--|------------5--6--------------6--5--||
B|---2--3-----------------------------|3==2--3-----------------------------||
G|---------------------7--6--6=====---|---------------------7--6--6=====---||
D|3=====---7=====---5=====---5=====---|3=====---7=====---5=====---5=====---||
A|------------------------------------|------------------------------------||
E|------------------------------------|------------------------------------||

  1  2  3  4  5  6  7  8  9  10 11 12  1  2  3  4  5  6  7  8  9  10 11 12
e|------------------------------------|------------------------------------||
B|------------------------------------|---------0--q--r--1--q--r--3--q--r--||
G|---------------------------0--q--r--|2--q--r--------------------0--q--r--||
C#1--q--r--3--q--r--4--q--r--3--q--r--|4--q--r-----------3--q--r-----------||
A|0--q--r--4--q--r--5--q--r--3--q--r--|3--q--r--2--q--r--0--q--r--2--q--r--||
E|1--q--r--5--q--r--5--q--r-----------|---------4--q--r--------------------||
                                                                           ||
  1  2  3  4  5  6  7  8  9  10 11 12  1  2  3  4  5  6  7  8  9  10 11 12 ||
e|------------------------------------|------------------------------------||
B|------------------------------------|------------0--------1--------3-----||
G|------------------------------0-----|---2--------------------2--0=====---||
D|---0--------2--------3-----2--------|3=====3--------2--2=====------------||
A|------0--4=====---5=====5--3-----3--|3=====---2=====---0=====---2=====---||
E|1=====---5=====5--5=====------------|---------4=====---------------------||

  1  2  3  4  5  6  7  8  9  10 11 12  1  2  3  4  5  6  7  8  9  10 11 12
e|------------------1========2========|3========4========5========---------||
B|4========5========------------------|---------3========3========2--q--r--||
G|0========0========---------2========|0========------------------2--q--r--||
C#------------------4========2========|1========4========4========3--q--r--||
A|3========3========3========---------|------------------------------------||
E|------------------------------------|------------------------------------||
                                                                           ||
  1  2  3  4  5  6  7  8  9  10 11 12  1  2  3  4  5  6  7  8  9  10 11 12 ||
e|------------------------------2-----|---3--------4--------5-----0=====---||
B|---4--------5--------6-----4=====---|3=====---6=====---6=====---2=====---||
G|------6--6=====6--6=====6--2-----2--|0=====0--8=====---8=====---2==2==---||
D|5=====---5=====---3=====------------|---------------6--7=====-----(7)----||
A|3=====------------------------------|---------------------------------0--||
E|------------------------------------|------------------------------------||

  1  2  3  4  5  6  7  8  9  10 11 12  1  2  3  4  5  6  7  8  9  10 11 12
e|------------------------------1-----|------------------------------------||
B|---------------------------------3--|------------------5--5========3==r--||
G|2===========3--2==============---2--|7===========8--8--------------------||
C#6==============6--4===========1--4--|6==============6-----8========4==r--||
A|7===========5--4--5===========0-----|------------------4--0========0==r--||
E|------------------------------------|7===========5--5--5-----------------||
                                                                           ||
  1  2  3  4  5  6  7  8  9  10 11 12  1  2  3  4  5  6  7  8  9  10 11 12 ||
e|------------------------------1-----|---------------0--------------------||
B|---------------------------------3--|------------3-----------------2--3--||
G|------------3--2--------------------|---0-----------------2--------------||
D|---2-----------------0--------------|------------------------------------||
A|------0-----------------0-----------|1=====1--0=====---0=====0-----------||
E|3=====---0=====---1=====---1=====---|---------------------------1=====---||

  1  2  3  4  5  6  7  8  9  10 11 12  1  2  3  4  5  6  7  8  9  10 11 12
e|------------3-----------------------|------------1--0--0========---------||
B|4===========---4--4========3--q--r--|3===========---------------3--q--r--||
G|4===========0--3--3========3--q--r--|2==============0--------------3--1--||
C#2===========1--6--4========4--q--r--|4===========1-----4===========------||
A|------------------------------------|---------------0--------------------||
E|------------------------------------|------------------------------------||
                                                                           ||
  1  2  3  4  5  6  7  8  9  10 11 12  1  2  3  4  5  6  7  8  9  10 11 12 ||
e|------------3-----------------------|------------1--0-----0-----------4--||
B|---4-----------4-----4--------3-----|---3--------------------------3-----||
G|3=====---3--------3--------3-----3--|2=====---2=====0-----------3=====1--||
D|1=====1--1=====---3=====3--3=====---|3=====0-----------3=====3-----------||
A|------------------------------------|------------------------------------||
E|------------------------------------|------------------------------------||

  1  2  3  4  5  6  7  8  9  10 11 12  1  2  3  4  5  6  7  8  9  10 11 12
e|------------3--1--1========0=====r--|0==============---------------------||
B|3===========------------------------|------------------------------------||
G|1========0=====0--0--0===========r--|------------2--2--2========0=====---||
C#4===========1-----------------------|3===========---6--6========4=====---||
A|---------------2--------------3--1--|1===========0--7--7========5=====---||
E|------------------3===========------|------------------------------------||
                                                                           ||
  1  2  3  4  5  6  7  8  9  10 11 12  1  2  3  4  5  6  7  8  9  10 11 12 ||
e|1--4--------3--------------------6--|---6--------5--3-----3-----------10-||
B|---------3=====6-----6--------5-----|5=====---5=====---5=====------------||
G|1=====1--0=====---5=====---5=====---|------3--------0--------2-----10----||
D|------------------5=====5--5=====---|5=====---7=====---5=====---12====---||
A|------------------------------------|------------------------------------||
E|------------------------------------|---------------------------13====---||

  1  2  3  4  5  6  7  8  9  10 11 12  1  2  3  4  5  6  7  8  9  10 11 12
e|------------------------------------|------------------------------------||
B|0========1========3========3========|3========1========0========0========||
G|1========1========1========1========|1========1========1========1========||
C#4========4========4========4========|4========4========4========4========||
A|------------------------------------|------------------------------------||
E|------------------------------------|------------------------------------||
                                                                           ||
  1  2  3  4  5  6  7  8  9  10 11 12  1  2  3  4  5  6  7  8  9  10 11 12 ||
e|------------------------------------|------------------------------------||
B|------------------------3--------3--|------3-----------------------------||
G|------5--------6--------------------|---------------6--------5--------5--||
D|---3--------3--------3--------3-----|---3--------3--------3--------3-----||
A|5=====---3=====---2=====---2=====---|2=====---3=====---4=====---4=====---||
E|4=====---4=====---4=====---4=====---|4=====---4=====---4=====---4=====---||

  1  2  3  4  5  6  7  8  9  10 11 12  1  2  3  4  5  6  7  8  9  10 11 12
e|---------------------------------1--|1===========------------------------||
B|0========1========3========1=====---|------------3--0--1===========------||
G|0========0========0========---------|------------------------------3--0--||
C#4========3========3========4========|1===========4--4--4========3=====3--||
A|---------------------------3========|1========------0--0========1=====1--||
E|------------------------------------|---------4=====---------------------||
                                                                           ||
  1  2  3  4  5  6  7  8  9  10 11 12  1  2  3  4  5  6  7  8  9  10 11 12 ||
e|---------------------------------1--|------1-----10-5-----8--5--------3--||
B|------0--------1--------3-----1-----|---3--------------------------1-----||
G|---0--------0-----------------------|------------------------------------||
D|---------------------2--------------|------------------------------------||
A|------------------------------------|1=====---------------------1=====---||
E|3=====---3=====---3=====---1=====---|5=====---4=====---5=====------------||

  1  2  3  4  5  6  7  8  9  10 11 12  1  2  3  4  5  6  7  8  9  10 11 12
e|------------------------------------|------------------------------------||
B|------------------------------------|------------------------------------||
G|------------------------------------|------------------------------------||
C#3=====r--.--q--r--.-----h-----r-----|.-----------w-----------r-----------||
A|0=====r--.--q--r--.-----h-----r-----|------------------------------------||
E|------------------------------------|------------------------------------||
                                                                           ||
  1  2  3  4  5  6  7  8  9  10 11 12  1  2  3  4  5  6  7  8  9  10 11 12 ||
e|------1--------1--------1--------1--|1===========---------8--5-----6--3--||
B|------------------------------1-----|------------3--0--------------------||
G|---------------------------2--------|-----3------------6===========3--0--||
D|---3--------3--------3--------------|---3--------------------------------||
A|0=====------------------------------|------------------------------------||
E|---------1=====---1=====---0=====---|------------------------------------||

  1  2  3  4  5  6  7  8  9  10 11 12  1  2  3  4  5  6  7  8  9  10 11 12
e|------------------------------------|------------1-----------------------||
B|------------------------------------|---------------3--3========2--q--r--||
G|------------------------------------|2==========----2--0=======-0--q--r--||
C#.-----------w-----------r-----------|4==========-1-----------------------||
A|------------------------------------|5==========-0-----1=======-0--q--r--||
E|------------------------------------|---------------1--------------------||
                                                                           ||
  1  2  3  4  5  6  7  8  9  10 11 12  1  2  3  4  5  6  7  8  9  10 11 12 ||
e|------------8--10-------------5-----|------------5--6--------------6--5--||
B|---5--6-----------------------------|---2--3--------------3--2-----------||
G|---------7=====------7--6--------6--|---------------------------6=====---||
D|3=====---7=====---8=====---7=====---|3=====---7=====---5=====---5=====---||
A|------------------10====---7=====---|------------------------------------||
E|------------------------------------|------------------------------------||

  1  2  3  4  5  6  7  8  9  10 11 12  1  2  3  4  5  6  7  8  9  10 11 12
e|------------1-----------------------|------------------------------------||
B|---------------3--3=======-2--q--r--|------------------3========---------||
G|2==========----2--0=======-0--q--r--|.-----h------r-------------5========||
C#4==========-1-----------------------|.-----h------r----1========5========||
A|5==========-0-----1=======-0--q--r--|------------------------------------||
E|---------------1--------------------|------------------------------------||
                                                                           ||
  1  2  3  4  5  6  7  8  9  10 11 12  1  2  3  4  5  6  7  8  9  10 11 12 ||
e|------------5--6--------------6--5--|------------6--5--------------10-8--||
B|3==2--3-----------------------------|3=====3--3=====------------10====---||
G|---------------------7--6--6=====---|---7-----------------7--8--11====---||
D|3=====---7=====---5=====---5=====---|3-----------------8=====---12====---||
A|------------------------------------|------------------------------------||
E|------------------------------------|------------------------------------||

  1 (2) 3  4  5 (6) 7  8  9  10 11 12  1  2  3  4  5  6  7  8  9  10 11 12 ||
e|------------------------------------|------------------------------------||
B|------------------------------------|------------------------------------||
G|3========2========0========---------|------------------------------------||
C#6========2========3========4========|3========1========0========1========||
A|7========---------1========5========|1========2========0========0========||
E|---------3========---------5========|3========1========0========1========||
                                                                           ||
  1  2  3  4  5  6  7  8  9  10 11 12  1  2  3  4  5  6  7  8  9  10 11 12 ||
e|------------6--5-----1--0--------10-|------------10-------------------10-||
B|---3--4--4=====---5=====------10----|---5--3--------6-----2--5-----6-----||
G|3=====---0=====---3=====---8=====---|3=====---7=====---7=====---10====---||
D|5=====---7=====---5=====---7=====---|5=====---9=====---7=====---12====---||
A|---------------------------8=====---|------------------------------------||
E|------------------------------------|------------------------------------||

  1  2  3  4  5  6  7  8  9  10 11 12  1  2  3  4  5  6  7  8  9  10 11 12
e|------------------------------------|------------------------------------||
B|------------------------------------|------------------------------------||
G|------------------------------------|------------------------------------||
C#3========4========3========3========|------------------------------------||
A|4========5=================4========|5=====r--.--q--r--.-----h-----r-----||
E|5==========================5========|5=====r--.--q--r--.-----h-----r-----||
                                                                           ||
  1  2  3  4  5  6  7  8  9  10 11 12  1  2  3  4  5  6  7  8  9  10 11 12 ||
e|------5-----10-------0--5-----9--0--|---------------------6--5-----10-8--||
B|5==5-----6=====6--5=====------------|------------8--7--7=====---10-------||
G|6=====---8=====---7=====---9=====---|7==6--7--5=====---5=====---10-------||
D|------------------7=====---11====---|7=====---7=====---------------------||
A|---------------------------12====---|9=====------------------------------||
E|------------------------------------|------------------------------------||

  1  2  3  4  5  6  7  8  9  10 11 12  1  2  3  4  5  6  7  8  9  10 11 12
e|------------------------------------|------------------------------------||
B|3===================================|3===================================||
G|0===================================|------------------------------------||
C#------------------------------------|4===================================||
A|1===================================|0===================================||
E|------------------------------------|------------------------------------||
                                       (fermata)                           ||
  1  2  3  4  5  6  7  8  9  10 11 12  1  2  3  4  5  6  7  8  9  10 11 12 ||
e|---6--3-----3-----------------------|2===================================||
B|3=====---------3-----3--------------|3===================================||
G|3=====---3=====---0=====3-----3--0--|2===================================||
D|---------5=====---0=====---0=====---|4===================================||
A|---------------------------1=====---|------------------------------------||
E|------------------------------------|------------------------------------||

| =    hold out value of note
| r    eighth rest
| q--r quarter rest
| .--q--r dotted quarter rest
| etc.
=============================================================================

            
            
Suggest correction
Creating personal tab
Creating personal tab
You can edit any tab online and save it as your Personal.

You can edit, replace or remove any tab part or add personal notes – all changes will be seen only by you.

Personal tabs can be accessed anytime from any device, even offline.
Learn more »
Give kudos to tab author, rate the tab!
1 2 3 4 5
comments
print report bad tab
4 comments total. Showing first comments.
0 reply
fragydig529 161 Mar 19, 2007 10:10 PM

Although I highly doubt a Mudvayne fan tabbed this, congrats, and if you did do it. Even more of a congrats to you :)

0 reply
Saaski_100 10 Mar 28, 2007 06:01 PM

'Lacrymosa' is how Evanescence spells it. Mozart's is spelt "Lacrimosa".

0 reply
Mudvayne923 78 Mar 28, 2007 08:52 PM

I just put it like it was spelled in the vocal music we had. I just googled it. Hm, guess they were wrong and now am I.

guest
You may want to rate the tab now too:
select rating
Wanna post a correction for this tab? Suggest correction