Oops, an error
Loading. Please wait.

Verwahrlost Aber Frei tab

181 views 1 this week
no commentswrite comment
1 2 3 4 5
3 more votes to show rating
add to favorites
×
Save as Personal and add changes to this tab that will be seen only by you. Learn more ›
×
You can save this tab as Personal to edit and correct it or add notes. All changes will be seen only by you. Learn more »
launch autoscroll
font size
0
reset
how to read this tab
guitar tuner
edit
Autoscroll
slow
fast
+/-
esc
set tempo
stop
Author
Difficulty
About this tab version
Completely revised version with many changes. Added intro. Was this info helpful? Yes No
Verwahrlost aber frei
Wolfgang Ambros
Tabbed by Steini

[Intro]
e|-------17-14-|-------5-2-|-------17-14-|
B|-----15------|-----3-----|-----15------|
G|---14--------|---2-------|---14--------|
D|-12----------|-0---------|-12----------|
A|-------------|-----------|-------------|
E|-------------|-----------|-------------|

               G       D     G        D            Bm       D            Em       G  A
e|-2-2-2-5-2-|-7--7--5-5-2-|-7-7-7--5-5-------2-5-|-7--7--5-5-2--2-3-5 |-3-2-------------|
B|-----------|-------------|--------------3-5-----|--------------------|-----5-3--0--3---|
G|-----------|-------------|----------------------|--------------------|-----------------|
D|-----------|-------------|----------------------|--------------------|-----------------|
A|-----------|-------------|----------------------|--------------------|-----------------|
E|-----------|-------------|----------------------|--------------------|-----------------|

   G       D     G        D            Bm       D              Em       G  A | D  Dsus2 Dsus4 D
e|-7--7--5-5-2-|-7-7-7--5-5-------2-5-|-7--7--5-5--2-2-2-3-5 |-3-2-----------|-2-|-0-0--3--2--|
B|-------------|--------------3-5-----|----------------------|-----5-3--0--3-|-3-|-2-2--2--3--|
G|-------------|----------------------|----------------------|---------------|-2-|-3-3--3--3--|
D|-------------|----------------------|----------------------|---------------|-0-|-0-0--0--0--|
A|-------------|----------------------|----------------------|---------------|---|------------|
E|-------------|----------------------|----------------------|---------------|---|------------|

[Verse 1]
             G               D           G                   D
Es hod jeda Recht, der mi verurteilt  i bin gaunz sicher schlecht
           Bm           D                  Em            | G    A |
I bin net so, i bin net aunders, i bin ka Herr, i bin ka Knecht
                  G             D          G                D
Doch mir schafft niemand irgend etwas an egal wer des auch sei
          Bm              D             Em          G    A     D | Dsus2 Dsus4 D |
I bin verwahrlost und i waaß es  I bin verwahrlost, aber i bin frei

[Verse 2]
          G               D                G                  D 
I hob de Sunn, i hob den Regen, i hob nur des, was mir wer schenkt
         Bm               D                Em           |G    A|
I bin so aner, der immer nur an heute und nie an morgen denkt
             G               D                   G               D
Doch i mach was und wie und wann i's wü und i genieß mei Lebn dabei
          Bm                   D                   Em        G    A       D   | Dsus2 Dsus4 D |
I bin verwahrlost, des kaun a jeda segn   I bin verwahrlost, aber i bin frei

[Bridge]
   F#m                   G                 D              Bm
Es kummt wia's kummt, i fiarcht mi ned, i hob nix zum verliern
   F#m                      G                D                A
Es kummt wia's kummt, doch wos a kummt, wos soll mir scho passiern

[Solo]
G   D   G   D   Bm   D   Em   | G   A |
G   D   G   D   Bm   D   Em   | G  A  D | D | Dsus2 Dsus4 D | Dsus2 Dsus4 D | Dsus2 Dsus4 D |

[Verse 3]
          G                 D                      G                 D
So viele Jahre, liegn scho hinter mir und niemand waaß, wia vu's no wean
                 Bm          D                            Em                 |G   A| 
Doch selbst waun i heut no sterben müsst', daun gab's fia mi kann Grund zum Blean
            G               D                       G               D
Denn i leb so, dass mir nix überbleibt und waun i stirb, is hoid vorbei
          Bm               D                      Em        G    A       D  | Dsus2 Dsus4 D |
I bin verwahrlost und des wer i bleibn   I bin verwahrlost, aber i bin frei
        D  | Dsus2 Dsus4 D |       D  | Dsus2 Dsus4 D |         D         | Dsus2 Dsus4 D |
I bin frei------           I bin frei-ei-ei             I bin frei--ei--ei--ei--ei

            
            
Suggest correction
Creating personal tab
Creating personal tab
You can edit any tab online and save it as your Personal.

You can edit, replace or remove any tab part or add personal notes – all changes will be seen only by you.

Personal tabs can be accessed anytime from any device, even offline.
Learn more »
Give kudos to tab author, rate the tab!
1 2 3 4 5
comments
print report bad tab
guest
You may want to rate the tab now too:
select rating
Wanna post a correction for this tab? Suggest correction