Oops, an error
Loading. Please wait.

Apple Tree tab

version 1
version 1

Whole song

Interactive

25,808 views 24 this week
5 commentsread comments
1 2 3 4 5
x 14
add to favorites
×
Save as Personal and add changes to this tab that will be seen only by you. Learn more ›
×
You can save this tab as Personal to edit and correct it or add notes. All changes will be seen only by you. Learn more »
launch autoscroll
font size
0
reset
how to read this tab
guitar tuner
edit
Autoscroll
slow
fast
+/-
esc
set tempo
stop
Author
----------------------------------------------------------------------------
                             Apple tree - Wolfmother
----------------------------------------------------------------------------
Tabbed by: LukeyD(is sexy)
Email: Dwyer6@hotmail.com

Tuning: Standard

   "dear sir..."
e|-------------------------------------------------------------------------|
B|-------------------------------------------------------------------------|
G|--7-----7-----7------7---------------------------------------------------|
D|--8-----8-----8------8---------------------------------------------------|
A|--8-----8-----8------8---------------------------------------------------|
E|--6-----6-----6------6---------------------------------------------------|

e|-------------------------------------------------------------------------|
B|-------------------------------------------------------------------------|
G|-------------------------------------------------------------------------|
D|--8--8--8--8-------------------------------------------------------------|
A|--8--8--8--8------4-6bp4-------------------------------------------------|
E|--6--6--6--6--4h6--------6-----------------------------------------------|

   "Your daughter is so fine to see..."
e|-------------------------------------------------------------------------|
B|-------------------------------------------------------------------------|
G|-------------------------------------------------------------------------|
D|--8-------6--8-----------------------------------------------------------|
A|--8-------6--8-----------------------------------------------------------|
E|--6-------4--6-----------------------------------------------------------|
Let the notes ring


e|-------------------------------------------------------------------------|
B|-------------------------------------------------------------------------|
G|--6----------------------------------------------------------------------|
D|--6-x10---6--8-----------------------------------------------------------|
A|--4-------6--8-----------------------------------------------------------|
E|----------4--6-----------------------------------------------------------|

e|-------------------------------------------------------------------------|
B|-------------------------------------------------------------------------|
G|-------------------------------------------------------------------------|
D|------------6-8-8---6--8-------------------------------------------------|
A|------4h6/8---------6--8-------------------------------------------------|
E|--4h6---------------4--6-------------------------------------------------|

solo
There are parts particularly towards the end which arent correct (its hard to
tell with the effects used in the song), but if u play around you'll get it.

e|-------------------------------------------------------------------------|
B|----------------------------------------9-11-11--------------------------|
G|---6-8b--8rp6---6---------------6h8/10-----------------------------------|
D|-------------8---8-8-------6h8-------------------------------------------|
A|-------------------------------------------------------------------------|
E|-------------------------------------------------------------------------|

e|-------------------------------------------------------------------------|
B|----------------------------------------9-11-11--------------------------|
G|---6-8b--8rp6---6---------------6h8/10-----------------------------------|
D|-------------8---8-8-------6h8-------------------------------------------|
A|-------------------------------------------------------------------------|
E|-------------------------------------------------------------------------|

e|-------------------------------------------------------------------------|
B|-------------------------------------------------------------------------|
G|---6-8b--8r-6---6--------------------------------------------------------|
D|-------------8---8-8~----------------------------------------------------|
A|-------------------------------------------------------------------------|
E|-------------------------------------------------------------------------|

e|-------------------------------------------------------------------------|
B|----------------------------------------9-11-11--------------------------|
G|---6-8b--8rp6---6---------------6h8/10-----------------------------------|
D|-------------8---8-8-------6h8-------------------------------------------|
A|-------------------------------------------------------------------------|
E|-------------------------------------------------------------------------|

e|---18--16--13--16--13----13----------------------------------------------|
B|----------------------16----16--14--16--14--16-16b--14-16-------16-------|
G|----------------------------------------------------------13/15----------|
D|-------------------------------------------------------------------------|
A|-------------------------------------------------------------------------|
E|-------------------------------------------------------------------------|

e|--18b--16--13--13-16-13--------------------------------------------------|
B|------------------------16-14-16-16-----14-16bp14------------------------|
G|--------------------------------------15----------15---------------------|
D|-------------------------------------------------------------------------|
A|-------------------------------------------------------------------------|
E|-------------------------------------------------------------------------|

e|-----13-16-18b-16-13-----13----------------------------------------------|
B|--16------------------16----16-14-16-14----(16)--------------------------|
G|----------------------------------------15~------------------------------|
D|-------------------------------------------------------------------------|
A|-------------------------------------------------------------------------|
E|-------------------------------------------------------------------------|



************************************

| h    Hammer-on
| x    Dead note
| /    Slide up
| b    Bend
| r    Release
| ~    Vibrato
|(5)   hidden note 

************************************

            
            
Suggest correction
Creating personal tab
Creating personal tab
You can edit any tab online and save it as your Personal.

You can edit, replace or remove any tab part or add personal notes – all changes will be seen only by you.

Personal tabs can be accessed anytime from any device, even offline.
Learn more »
comments
print report bad tab
5 comments total. Showing first comments.
0 reply
Wolfmother_69 30 Feb 13, 2006 02:36 PM

solo is wrong, you suck

0 reply
jenkins89 10 Mar 23, 2006 01:27 AM

that is complete crap,.. i dont thinik any1 could get it that wrong.. are u sure u didnt accidentally post it as the worng name.. coz thats shittt!!!!

0 reply
RHCP_25 20 Sep 15, 2006 08:00 AM

wrong

guest
You may want to rate the tab now too:
select rating
Wanna post a correction for this tab? Suggest correction