Oops, an error
Loading. Please wait.

Colossal tab

version 5
version 5

Whole song

Interactive

15,663 views 3 this week
5 commentsread comments
1 2 3 4 5
x 12
add to favorites
×
Save as Personal and add changes to this tab that will be seen only by you. Learn more ›
×
You can save this tab as Personal to edit and correct it or add notes. All changes will be seen only by you. Learn more »
launch autoscroll
font size
0
reset
how to read this tab
guitar tuner
edit
Autoscroll
slow
fast
+/-
esc
set tempo
stop
-------------------------------------------------------------------------------
                             Colosal - Wolfmother
-------------------------------------------------------------------------------
Tabbed by:Ryan
Email: razadera@comcast.net

Tuning: Drop D (DADGBE)

Intro
e|---------------------------------------------------------------------------|
B|---------------------------------------------------------------------------|
G|---------------------------------------------------------------------------|
D|---0-----------10-----0------------12-----0-----------10----0----12p10-----|
A|---0----10h12---------0------10h12--------0----10h12--------0-----------12-|
D|---0------------------0-------------------0-----------------0--------------|

e|---------------------------------------------------------------------------|
B|---------------------------------------------------------------------------|
G|-----------------------------------------------------------------12b---10b-|
D|---0-----------10-----0------------12-----0-----------10----0----12b---10b--|
A|---0----10h12---------0------10h12--------0----10h12--------0--------------|
D|---0------------------0-------------------0-----------------0--------------| x1

Verse
e|---------------------------------------------------------------------------|
B|---------------------------------------------------------------------------|
G|---------------------------------------------------------------------------|
D|----12--12------12--12-----12--12-----12--12-----10------------------------|
A|----12--12------12--12-----12--12-----12--12-----10------------------------|
D|----12--12------12--12-----12--12-----12--12-----10------------------------| x5

e|---------------------------------------------------------------------------|
B|---------------------------------------------------------------------------|
G|---------------------------------------------------------------------------|
D|-----7--7--7--7--7--7--7--7------10--10--10--10--10--10--------------------|
A|-----7--7--7--7--7--7--7--7------10--10--10--10--10--10--------------------|
D|-----7--7--7--7--7--7--7--7------10--10--10--10--10--10--------------------|

e|---------------------------------------------------------------------------|
B|---------------------------------------------------------------------------|
G|-----------------------------------------------------------------12b---10b-|
D|---0-----------10-----0------------12-----0-----------10----0----12b---10b--|
A|---0----10h12---------0------10h12--------0----10h12--------0--------------|
D|---0------------------0-------------------0-----------------0--------------|

e|---------------------------------------------------------------------------|
B|---------------------------------------------------------------------------|
G|---------------------------------------------------------------------------|
D|-----7--7--7--7--7--7--7--7------10--10--10--10--10--10--------------------|
A|-----7--7--7--7--7--7--7--7------10--10--10--10--10--10--------------------|
D|-----7--7--7--7--7--7--7--7------10--10--10--10--10--10--------------------|

Verse2
e|---------------------------------------------------------------------------|
B|---------------------------------------------------------------------------|
G|---------------------------------------------------------------------------|
D|----12--12------12--12-----12--12-----12--12-----10------------------------|
A|----12--12------12--12-----12--12-----12--12-----10------------------------|
D|----12--12------12--12-----12--12-----12--12-----10------------------------| x5

Chorus
e|---------------------------------------------------------------------------|
B|---------------------------------------------------------------------------|
G|---------------------------------------------------------------------------|
D|-----7--7--7--7--7--7--7--7------10--10--10--10--10--10--------------------|
A|-----7--7--7--7--7--7--7--7------10--10--10--10--10--10--------------------|
D|-----7--7--7--7--7--7--7--7------10--10--10--10--10--10--------------------|

Bridge
e|---------------------------------------------------------------------------|
B|---------------------------------------------------------------------------|
G|---------------13\12-------------------------------------------------------|
D|----10--12-----13\12---11--10------13--12----------------------------------|
A|----10--12-----11\10---11--10------13--12----------------------------------|
D|----10--12-------------11--10------13--12----------------------------------| x4

Verse3
e|---------------------------------------------------------------------------|
B|---------------------------------------------------------------------------|
G|---------------------------------------------------------------------------|
D|----7--7----7--7----7--7---7--7----10--12----------------------------------|
A|----7--7----7--7----7--7---7--7----10--12----------------------------------|
D|----7--7----7--7----7--7---7--7----10--12----------------------------------|

e|---------------------------------------------------------------------------|
B|---------------------------------------------------------------------------|
G|---------------------------------------------------------------------------|
D|----12--12------12--12-----12--12-----12--12-----10------------------------|
A|----12--12------12--12-----12--12-----12--12-----10------------------------|
D|----12--12------12--12-----12--12-----12--12-----10------------------------|x4

Chorus
e|---------------------------------------------------------------------------|
B|---------------------------------------------------------------------------|
G|---------------------------------------------------------------------------|
D|-----7--7--7--7--7--7--7--7------10--10--10--10--10--10--------------------|
A|-----7--7--7--7--7--7--7--7------10--10--10--10--10--10--------------------|
D|-----7--7--7--7--7--7--7--7------10--10--10--10--10--10--------------------|x2

e|---------------------------------------------------------------------------|
B|---------------------------------------------------------------------------|
G|-----------------------------------------------------------------12b---10b-|
D|---0-----------10-----0------------12-----0-----------10----0----12b---10b--|
A|---0----10h12---------0------10h12--------0----10h12--------0--------------|
D|---0------------------0-------------------0-----------------0--------------|

e|---------------------------------------------------------------------------|
B|---------------------------------------------------------------------------|
G|---------------------------------------------------------------------------|
D|-----7--7--7--7--7--7--7--7------10--10--10--10--10--10--------------------|
A|-----7--7--7--7--7--7--7--7------10--10--10--10--10--10--------------------|
D|-----7--7--7--7--7--7--7--7------10--10--10--10--10--10--------------------|

Bridge
e|---------------------------------------------------------------------------|
B|---------------------------------------------------------------------------|
G|---------------13\12-------------------------------------------------------|
D|----10--12-----13\12---11--10------13--12----------------------------------|
A|----10--12-----11\10---11--10------13--12----------------------------------|
D|----10--12-------------11--10------13--12----------------------------------| x4


e|---------------------------------------------------------------------------|
B|---------------------------------------------------------------------------|
G|---------------------------------------------------------------------------|
D|---------------------------------------------------------------------------|
A|---------------------------------------------------------------------------|
D|----10/12-12-12-12---10/12--12-12-12-12---10/12-12-12-12-----14-14-14-14---
|

e|---------------------------------------------------------------------------|
B|---------------------------------------------------------------------------|
G|---------------------------------------------------------------------------|
D|----------------------------------------------------------5--6--7----------|
A|----------------------------------------------------------5--6--7----------|
D|----10/12-12-12-12---10/12--12-12-12-12---10/12-12-12-12--5--6--7----------|x1

e|---------------------------------------------------------------------------|
B|---------------------------------------------------------------------------|
G|---------------------------------------------------------------------------|
D|----10/12-12-12-12---10/12--12-12-12-12---10/12-12-12-12-----14-14-14-14---|
A|----10/12-12-12-12---10/12--12-12-12-12---10/12-12-12-12-----14-14-14-14---|
D|----10/12-12-12-12---10/12--12-12-12-12---10/12-12-12-12-----14-14-14-14---
|

e|---------------------------------------------------------------------------|
B|---------------------------------------------------------------------------|
G|---------------------------------------------------------------------------|
D|----10/12-12-12-12---10/12--12-12-12-12---10/12-12-12-12---5--6--7---------|
A|----10/12-12-12-12---10/12--12-12-12-12---10/12-12-12-12---5--6--7---------|
D|----10/12-12-12-12---10/12--12-12-12-12---10/12-12-12-12---5--6--7---------| x4


e|---------------------------------------------------------------------------|
B|---------------------------------------------------------------------------|
G|---------------------------------------------------------------------------|
D|-----15-15-15----14-14-14----13-13-13----12-12-12--------------------------|
A|-----15-15-15----14-14-14----13-13-13----12-12-12--------------------------|
D|-----15-15-15----14-14-14----13-13-13----12-12-12--------------------------| x4

e|---------------------------------------------------------------------------|
B|---------------------------------------------------------------------------|
G|---------------------------------------------------------------------------|
D|---15b-----14b----13b----12b-----------------------------------------------|
A|---15b-----14b----13b----12b-----------------------------------------------|
D|---15b-----14b----13b----12b-----------------------------------------------| x4

outro (the fifth time do this)
e|---------------------------------------------------------------------------|
B|---------------------------------------------------------------------------|
G|---------------------------------------------------------------------------|
D|----15~~~~----14~~~~---13~~~~---------0~~~~~~~~~~--------------------------|
A|----15~~~~----14~~~~---13~~~~---------0~~~~~~~~~~--------------------------|
D|----15~~~~----14~~~~---13~~~~---------0~~~~~~~~~~~-------------------------|


| /  slide up
| \  slide down
| h  hammer-on
| p  pull-off
| ~  vibrato
| +  harmonic
| x  Mute note
===============================================================================

            
            
Suggest correction
Creating personal tab
Creating personal tab
You can edit any tab online and save it as your Personal.

You can edit, replace or remove any tab part or add personal notes – all changes will be seen only by you.

Personal tabs can be accessed anytime from any device, even offline.
Learn more »
comments
print report bad tab
5 comments total. Showing first comments.
0 reply
Khanlari 10 Dec 22, 2006 07:52 PM

You can watch the Wolfmother Live video on Google, I have it on my iTunes. This is how Andrew plays it. I met him once and we talked about guitar for a couple minutes and he told me he plays Collosal with open strings so I was surprised.

0 reply
Hawk180- 10 Jan 23, 2008 10:43 PM

thats ****ing screwed!! i'm not saying its wrong though

+1 reply
grandmabeater 10 Feb 28, 2008 04:11 PM

This tab looks is pretty damn good to me. It does play better in D.

guest
You may want to rate the tab now too:
select rating
Wanna post a correction for this tab? Suggest correction