Oops, an error
Loading. Please wait.
We have an official Cosmic Egg tab made by UG professional guitarists. Check out the tab »
×
30,253 views 18 this week
9 commentsread comments
1 2 3 4 5
x 12
add to favorites
×
Save as Personal and add changes to this tab that will be seen only by you. Learn more ›
×
You can save this tab as Personal to edit and correct it or add notes. All changes will be seen only by you. Learn more »
launch autoscroll
font size
0
reset
how to read this tab
guitar tuner
backing track
0:00
0:00
edit
Autoscroll
slow
fast
+/-
esc
set tempo
stop
Author
Difficulty
Transcribed by Danleary

Hello Wolfmother.net!

Standard Tuning

Key

 ^  : Bend [1/4, 1/2, 1, etc.]
 v  : Bring bend back down
 /  : Slide into
 \  : Slide out of
 h  : Hammer on
 p  : Pull Off
(-) : Do not pick note
 =  : Vibrato
 x  : Mute
_____________________________________________________________________________

Intro/Chorus

*Played with wah-wah pedal the first time through.

Played again at 0:47, 1:13, 1:45, 2:18, 2:51

0:00        
   
|-------------------------------------------------------------|
|-------------------------------------------------------------|
|-------------------------------------------------------------|
|-------------------------------------------------------------|
|-----------------12------------------10------------------12--|
|--x--0-x--0-x--0----0-x--0-x--0-x--0----0-x--0-x--0-x--0-----|
                   
                    
|-------------------------|    
|-------------------------|
|-------------------------|
|-------------------------|
|--------------10h12--10--|
|--0-x--0-x--0------------|
_____________________________________________________________________________

Bridge

Appears again at 1:06, 1:39, 2:11, 2:44

   
0:40

   C
|-------------------------------------------------------------------|
|-------------------------------------------------------------------|
|-------------------------------------------------------------------|
|--10---10-10---10-10---10-10---10-10---10-10---10-10---10-10---10--|
|--10---10-10---10-10---10-10---10-10---10-10---10-10---10-10---10--|
|--8----8--8----8--8----8--8----8--8----8--8----8--8----8--8----8---|

0:43 

   B                      G           F#
|--------------------------------------------------|
|--------------------------------------------------|
|--------------------------------------------------|
|--9---9-9---9-9---9-9--9-5---5-5---5-4---4-4---4--|
|--9---9-9---9-9---9-9--9-5---5-5---5-4---4-4---4--|
|--7---7-7---7-7---7-7--7-3---3-3---3-2---2-2---2--|
_____________________________________________________________________________

Verse

He varies the rhythm of the open E lick at the end once or twice throughout
the song, but it's usually as written.

Appears again at 2:25

 1:19

|-----------------------------------------------|
|-----------------------------------------------|
|-----------------------------------------------|
|--------------0h2p0----------------------------|
|--------0h2h3-------3h2p0----------------------|
|--0h1h3-------------------x--0-0-0-0-x-0--x-0--|
_____________________________________________________________________________

Solo

 3:04

|--12-10-------------------------------|
|--------12----10-12-10----10----------|
|-----------------------12----12----9--|
|--------------------------------12----|
|--------------------------------------|
|--------------------------------------|
                               Repeat 4X

3:17

    [1/2]              [1/2]      [1/2]
|--15^---15-12-10---12-11^---10------------|
|-------------------------------12-10^-10--|
|------------------------------------------|
|------------------------------------------|
|------------------------------------------|
|------------------------------------------|

3:20

|-----10-12----11-13----12-14----13-15----14-16----14-16----15-17------|
|--12-------13-------14-------15-------16-------16-------17-------17\--|
|----------------------------------------------------------------------|
|----------------------------------------------------------------------|
|----------------------------------------------------------------------|
|----------------------------------------------------------------------|

                                                Guitar II

3:23                   |3:28                    3:23
   [1/4]    [1/4]         [1/4]  [1/4] 
|------10--------------|-----10------10--|      |--10^-10^---10---------|
|--12^------12^-10-----|--12^----12^-----|      |---------------10------|
|------------------12--|-----------------|      |------------------12\--|
|----------------------|-----------------|      |-----------------------|
|----------------------|-----------------|      |-----------------------|
|----------------------|-----------------|      |-----------------------|
             Repeat 3X        Repeat 2X
                              Repeat 2X
_____________________________________________________________________________

Climax 
  
3:06
   E       F       G      A    
|---------------------------------|
|---------------------------------|
|---------------------------------|
|--2---2---3---3---5---5---7---7--|
|--2---2---3---3---5---5---7---7--|
|--0---0---1---1---3---3---5---5--|

3:43                                     
   D              E          
|--3--3---3--3----0--|
|--2--2---2--2----0--|
|--3--3---3--3----1--|
|--0--0---0--0----2--|
|-----------------2--|
|-----------------0--|
             Repeat 4X

Guitar II

3:48                       3:52

   [1]         [1]         [1/2]                          [1/2]
|--------------------------15^-12-10-10/12===---12-10-----------------------|
|-10^v(10)----10^v(10)--------------------------------12--12^v(12)----------|
|----------12-----------------------------------------------------12-10-12--|
|---------------------------------------------------------------------------|
|---------------------------------------------------------------------------|
|---------------------------------------------------------------------------|
_____________________________________________________________________________

Outro

Guitar I

3:56                   |4:02
                   
|----------------------|-----------|
|----------------------|-----------|
|----------------------|-----------|
|----------------------|-----------|
|-----------10h12--10--|--12--10\--|
|--x-0--x-0------------|-----------|
               Repeat 3X

Guitar II

3:56                          |4:02
             [1]                  [1]
|-----------------------------|------------|
|-----------------------------|------------|
|-----------12^v(12)----12----|--12^--12\--|
|--------------------14----14-|------------|
|-----------------------------|------------|
|--x-0--x-0-------------------|------------|
                      Repeat 3X


            
            
Suggest correction
Creating personal tab
Creating personal tab
You can edit any tab online and save it as your Personal.

You can edit, replace or remove any tab part or add personal notes – all changes will be seen only by you.

Personal tabs can be accessed anytime from any device, even offline.
Learn more »
comments
print report bad tab
9 comments total. Showing first comments.
0 reply
hernandeznathan 10 Oct 27, 2009 11:10 AM

I love this song! Great tab!

+1 reply
Lizardking23 10 Nov 24, 2009 06:48 PM

|-------------------------|
|-------------------------|
|-------------------------|
|-------------------------|
|--------------10h12p10--11|
|--0-x--0-x--0------------|

The last bit of the intro is more like this i believe

+1 reply
danleary 863 Nov 26, 2009 08:28 AM

I'm afraid I have to disagree Lizardking. I believe there are some added sounds from his finger brushing against the string when he stops it from ringing out. I don't hear the eleventh fret at all though. Still, thanks for the help!

guest
You may want to rate the tab now too:
select rating
Wanna post a correction for this tab? Suggest correction