Oops, an error
Loading. Please wait.
We have an official Dimension tab made by UG professional guitarists. Check out the tab »
×
5,925 views 3 this week
6 commentsread comments
1 2 3 4 5
x 7
add to favorites
×
Save as Personal and add changes to this tab that will be seen only by you. Learn more ›
×
You can save this tab as Personal to edit and correct it or add notes. All changes will be seen only by you. Learn more »
launch autoscroll
font size
0
reset
guitar tuner
backing track
0:00
0:00
edit
Autoscroll
slow
fast
+/-
esc
set tempo
stop
Author
----------------------------------PLEASE NOTE---------------------------------
This file is the author's own work and represents their interpretation of the
song. You may only use this file for private study, scholarship, or research.
------------------------------------------------------------------------------

"I fell down in the desert baby"..
G ------------------------|
D ------------------------|
A ----------------5-------|
E 0-0-0-0-0-0-5-7---------|

"I had to write something down"..
G -------------------------|
D ----------7-5------------|
A --------------7-5--------|
E 0-0-0-0-0---------7-5----|

"..Into another dimension"..
G ------------5-5-75-----------|
D ---3-4-5-6-7------7-6-5-4-3--|
A 3-5------------------------5-|
E -----------------------------|

brilliant easy song, the "i had to write something down" bit can also be done using hammer-ons

            
            
Suggest correction
Creating personal tab
Creating personal tab
You can edit any tab online and save it as your Personal.

You can edit, replace or remove any tab part or add personal notes – all changes will be seen only by you.

Personal tabs can be accessed anytime from any device, even offline.
Learn more »
comments
print report bad tab
6 comments total. Showing first comments.
0 reply
ianl 426 May 02, 2006 07:54 AM

I think the main riff goes like this
|----------------------------|
|----------------------------|
|-------------------------10-|
|-12-12-12-12-12-12-10h12----|

0 reply
lizard_king_21 10 May 13, 2006 10:06 PM

is your bass out of tune?

0 reply
BERSERK777777 10 Jul 21, 2006 01:36 AM

ya it's way higher than an open E

guest
You may want to rate the tab now too:
select rating
Wanna post a correction for this tab? Suggest correction