Oops, an error
Loading. Please wait.

Dimension bass

version 2
version 2
18,514 views 15 this week
6 commentsread comments
1 2 3 4 5
x 19
add to favorites
×
Save as Personal and add changes to this tab that will be seen only by you. Learn more ›
×
You can save this tab as Personal to edit and correct it or add notes. All changes will be seen only by you. Learn more »
launch autoscroll
font size
0
reset
guitar tuner
backing track
0:00
0:00
edit
Autoscroll
slow
fast
+/-
esc
set tempo
stop
Author
Difficulty
This is mostly all correct and has nearly every part to it. Enjoy.

INTRO/VERSE

G|----------------|-----------------|
D|----------------|---------------5-|
A|--7---7---7---7-|-7---7--0h5--7---|X3     
E|----------------|-----------------|

G|------------------|------9-7------------|
D|------------------|----------9-8-7-5----|
A|--7---7---7---7---|-7--7-------------7--|X1
E|------------------|---------------------|

G|----------------|-----------------|
D|----------------|---------------5-|
A|--7---7---7---7-|-7---7--0h5--7---|X4     
E|----------------|-----------------|

G|----------------|---------------5-|
D|--7---7---7---7-|-7---7--0h5--7---|X2
A|----------------|-----------------|
E|----------------|-----------------|

G|----------------|-----------------|
D|----------------|---------------5-|
A|--7---7---7---7-|-7---7--0h5--7---|X2
E|----------------|-----------------|

G|----------------|-----------------|
D|-9999999999999--|--777777777777/--|
A|----------------|-----------------|X1
E|----------------|-----------------|


CHORUS

G|----------------7-7-9--7-----------|----------------7-7-9--7-----------|
D|------5-6-7-8-9----------9-8-7-6-5-|------5-6-7-8-9----------9-8-7-6-5-|
A|-5-7-------------------------------|-5-7-------------------------------|
E|-----------------------------------|-----------------------------------|


G|----------------|-----------------|----------------|----------------|
D|----------------|-----------------|----------------|----------------|
A|----------------|-----------------|----------------|----------------|
E|-10-12----------|-6-5-------------|-10-12----------|-6-5------------|
   
G|----------------|-----------------|----------------|----------------|
D|----------------|-----------------|----------------|----------------|
A|----------------|-----------------|----------------|----------------|
E|-10-12----------|-6-5-------------|-10-12----------|-6-5------------|



POST CHORUS

G|----------------|-----------------|----------------|----------------|
D|--------------5-|---------------5-|--------------5-|--------------5-|
A|----7---0-5h7---|----7---0-5h7----|----7---0-5h7---|----7---0-5h7---|
E|-0--------------|-0---------------|-0--------------|-0--------------|



INTRO/VERSE

G|----------------|-----------------|
D|----------------|---------------5-|
A|--7---7---7---7-|-7---7--0h5--7---|X3     
E|----------------|-----------------|

G|------------------|------9-7------------|
D|------------------|----------9-8-7-5----|
A|--7---7---7---7---|-7--7-------------7--|X1
E|------------------|---------------------|

G|----------------|-----------------|
D|----------------|---------------5-|
A|--7---7---7---7-|-7---7--0h5--7---|X4     
E|----------------|-----------------|

G|----------------|---------------5-|
D|--7---7---7---7-|-7---7--0h5--7---|X2
A|----------------|-----------------|
E|----------------|-----------------|

G|----------------|-----------------|
D|----------------|---------------5-|
A|--7---7---7---7-|-7---7--0h5--7---|X2
E|----------------|-----------------|

G|----------------|-----------------|
D|-9999999999999--|--777777777777/--|
A|----------------|-----------------|X1
E|----------------|-----------------|



CHORUS

G|----------------7-7-9--7-----------|-----5-6-7-8-9-12-14-14-9-8-7-6-5--|
D|------5-6-7-8-9----------9-8-7-6-5-|-5-7-------------------------------|
A|-5-7-------------------------------|-----------------------------------|
E|-----------------------------------|-----------------------------------|


G|----------------|-----------------|----------------|----------------|
D|----------------|-----------------|----------------|----------------|
A|----------------|-----------------|----------------|----------------|
E|-10-12----------|-6-5-------------|-10-12----------|-6-5------------|
   
G|----------------|-----------------|----------------|----------------|
D|----------------|-----------------|----------------|----------------|
A|----------------|-----------------|----------------|----------------|
E|-10-12----------|-6-5-------------|-10-12----------|-6-5------------|



BRIDGE


G|----------------|----------------|----------------|----------------|
D|----------------|----------------|----------------|----------------|
A|-10--10--10--10-|-10--10--10--10-|-12--12--12--12-|-12--12--12--12-|
E|----------------|----------------|----------------|----------------|



SOLO THING (THIRD VERSE STARTING WITH NO GUITAR)

G|----------------|-----------------|----------------|----------------|
D|--------------5-|---------------5-|--------------5-|--------------5-|
A|----7---0-5h7---|----7---0-5h7----|----7---0-5h7---|----7---0-5h7---|
E|-0--------------|-0---------------|-0--------------|-0--------------|

G|----------------|-----------------|----------------|----------------|
D|--------------5-|---------------5-|--------------5-|--------------5-|
A|----7---0-5h7---|----7---0-5h7----|----7---0-5h7---|----7---0-5h7---|
E|-0--------------|-0---------------|-0--------------|-0--------------|

G|----------------|-----------------|----------------|----------------|----------------|
D|--------------5-|---------------5-|--------------5-|-77777777777777-|-77777777777777-|
A|----7---0-5h7---|----7---0-5h7----|----7---0-5h7---|----------------|----------------|
E|-0--------------|-0---------------|-0--------------|----------------|----------------|

G|----------------|-----------------|----------------|----------------|
D|--------------5-|---------------5-|--------------5-|--------------5-|
A|----7---0-5h7---|----7---0-5h7----|----7---0-5h7---|----7---0-5h7---|
E|-0--------------|-0---------------|-0--------------|-0--------------|

G|----------------|-----------------|
D|-9999999999999--|--777777777777/--|
A|----------------|-----------------|X1
E|----------------|-----------------|



G|----------------7-7-9--7-----------|------4-5-6-7-8-11-11-13-11-8-7-6-5-4-------|
D|------5-6-7-8-9----------9-8-7-6-5-|-4-6----------------------------------4-6---|
A|-5-7-------------------------------|--------------------------------------------|
E|-----------------------------------|--------------------------------------------|


G|----------------|-----------------|-----------------|-----------------| |----------------|
D|----------------|---------------5-|-----------------|---------------5-| |----------------|
A|--7---7---7---7-|-7---7--0h5--7---|---7---7---7---7-|-7---7--0h5--7---| |-Until End on 7-|
E|----------------|-----------------|-----------------|-----------------| |----------------|

            
            
Suggest correction
Creating personal tab
Creating personal tab
You can edit any tab online and save it as your Personal.

You can edit, replace or remove any tab part or add personal notes – all changes will be seen only by you.

Personal tabs can be accessed anytime from any device, even offline.
Learn more »
comments
print report bad tab
6 comments total. Showing first comments.
0 reply
Bert_Hastings 179 Apr 04, 2007 03:32 PM

it is mostly correct, but here's whats wrong. One: your 2nd verse is merely a copy'n'paste job with the first one, which tells the player to play the intro, which they should not. Two: You left out the bass fills. I played along with your tab, and there are a few spots where you had no fill tabbed, and you could hear a little walkdown fill.

-2 reply
bigAYR1000 41 Dec 21, 2007 01:42 AM

at the scale during the chorus, it sounds better like
this

G:-----4-6--464-----|
D:-----4-6-----6-4-----|
A:-----4-6-----6-
4----|
E:--04-6-----6-4|

-1 reply
bigAYR1000 41 Dec 21, 2007 01:43 AM

that didnt come out right.

guest
You may want to rate the tab now too:
select rating
Wanna post a correction for this tab? Suggest correction