Oops, an error
Loading. Please wait.
We have an official Dimension tab made by UG professional guitarists. Check out the tab »
×
2,813 views 1 this week
1 commentread comment
1 2 3 4 5
x 4
add to favorites
×
Save as Personal and add changes to this tab that will be seen only by you. Learn more ›
×
You can save this tab as Personal to edit and correct it or add notes. All changes will be seen only by you. Learn more »
launch autoscroll
font size
0
reset
guitar tuner
backing track
0:00
0:00
edit
Autoscroll
slow
fast
+/-
esc
set tempo
stop
Dimension - Wolfmother

This is my first tab, but i'm pretty confident with it. 
The other tabs for this song were, for the most part correct, 
but they left out a few fills and other various changes Chris makes while playing
this song. Enjoy!

INTRO
G|----------------|-----------------|
D|----------------|---------------5-|
A|--7---7---7---7-|-7---7--0h5--7---|X3     
E|----------------|-----------------|

G|-----------------|------9-7------------|
D|-----------------|----------9-8-7-5----|
A|--7---7---7---7--|-7----------------7--|
E|-----------------|---------------------|

VERSE
G|----------------|-----------------|
D|----------------|---------------5-|
A|--7---7---7---7-|-7---7--0h5--7---|X4     
E|----------------|-----------------|

G|----------------|---------------5-|
D|--7---7---7---7-|-7---7--0h5--7---|
A|----------------|-----------------|
E|----------------|-----------------|

G|------------------|------9-7------------|
D|--7---7---7---7---|-7--------9-8-7-5----|
A|------------------|------------------7--|
E|------------------|---------------------|

G|----------------|-----------------|
D|----------------|---------------5-|
A|--7---7---7---7-|-7---7--0h5--7---|X2
E|----------------|-----------------|

PRE-CHORUS
G|----------------|-----------------|
D|-9999999999999--|--777777777777\--|
A|----------------|-----------------|
E|----------------|-----------------|

CHORUS
G|----------------7--7-9-7------------------|
D|------5-6-7-8-9----------9-8-7-6-5--4-5-4-|
A|-5-7--------------------------------------|
E|------------------------------------------|

G|----------------7--7-9-7------------|
D|------5-6-7-8-9----------9-8-7-6-5/-|
A|-5-7--------------------------------|
E|------------------------------------|

G|----------------|-----------------|----------------|----------------|
D|----------------|-----------------|----------------|----------------|
A|----------------|-----------------|----------------|----------------|
E|-10-12~---------|-6-5~------------|-10-12~---------|-6-5~-----------|
   
G|----------------|-----------------|----------------|----------------|
D|----------------|-----------------|----------------|----------------|
A|----------------|-----------------|----------------|----------------|
E|-10-12~---------|-6-5~------------|-10-12~---------|-6-5~-----------|

POST CHORUS
G|----------------|-----------------|----------------|------9-7------------|
D|--------------5-|---------------5-|--------------5-|----------9-8-7-5----|
A|----7---0-5h7---|----7---0-5h7----|----7---0-5h7---|------------------7--|
E|-0--------------|-0---------------|-0--------------|-0-------------------|

VERSE
G|----------------|-----------------|
D|----------------|---------------5-|
A|--7---7---7---7-|-7---7--0h5--7---|X4     
E|----------------|-----------------|

G|----------------|---------------5-|
D|--7---7---7---7-|-7---7--0h5--7---|
A|----------------|-----------------|
E|----------------|-----------------|

G|------------------|------9-7------------|
D|--7---7---7---7---|-7--------9-8-7-5----|
A|------------------|------------------7--|
E|------------------|---------------------|

G|----------------|-----------------|
D|----------------|---------------5-|
A|--7---7---7---7-|-7---7--0h5--7---|X2
E|----------------|-----------------|

PRE-CHORUS
G|----------------|-----------------|
D|-9999999999999--|--777777777777\--|
A|----------------|-----------------|
E|----------------|-----------------|

CHORUS
G|----------------7--7-9-7------------------|
D|------5-6-7-8-9----------9-8-7-6-5--4-5-4-|
A|-5-7--------------------------------------|
E|------------------------------------------|

G|----------------------------12---12-14-12-----------------|
D|-------------10-11-12-13-14-------------- 14-13-12-11-10--|
A|----10-12-------------------------------------------------|
E|----------------------------------------------------------|

G|----------------|-----------------|----------------|----------------|
D|----------------|-----------------|----------------|----------------|
A|----------------|-----------------|----------------|----------------|
E|-10-12~---------|-6-5~------------|-10-12~---------|-6-5~-----------|
   
G|----------------|-----------------|----------------|----------------|
D|----------------|-----------------|----------------|----------------|
A|----------------|-----------------|----------------|----------------|
E|-10-12~---------|-6-5~------------|-10-12~---------|-6-5~/----------|

BRIDGE
G|----------------|----------------|----------------|----------------|
D|----------------|----------------|----------------|----------------|
A|-10--10--10--10-|-10--10--10--10-|-12--12--12--12-|-12~------------|
E|----------------|----------------|----------------|----------------|

VERSE
G|----------------|-----------------|----------------|----------------|
D|--------------5-|---------------5-|--------------5-|--------------5-|
A|----7---0-5h7---|----7---0-5h7----|----7---0-5h7---|----7---0-5h7---|X3
E|-0--------------|-0---------------|-0--------------|-0--------------|

G|----------------|-----------------|-----------------|------9-7------------|
D|----------------|-----------------|-----------------|----------9-8-7-5----|
A|--7---7---7---7-|--7---7---7---7--|--7---7---7---7--|-7--7-------------7--|   
E|----------------|-----------------|-----------------|---------------------|

G|----------------|-----------------|----------------|----------------|
D|--------------5-|---------------5-|--------------5-|--------------5-|
A|----7---0-5h7---|----7---0-5h7----|----7---0-5h7---|----7---0-5h7---|
E|-0--------------|-0---------------|-0--------------|-0--------------|

PRE-CHORUS
G|----------------|-----------------|
D|----------------|-----------------|
A|----------------|-----------------|
E|-7777777777777--|-5555555555555\--|

CHORUS
G|----------------7--7-9-7-----------------|
D|------5-6-7-8-9----------9-8-7-6-5--4-5-4|
A|-5-7-------------------------------------|
E|-----------------------------------------|

G|------4-5-6-7-8-11--11-13-11-8-7-6-5-4-------|
D|-4-6-----------------------------------4-6---|
A|---------------------------------------------|
E|---------------------------------------------|

OUTRO					        End On
G|----------------|-----------------|   	        |----| 
D|----------------|---------------5-|X4	|----|
A|--7---7---7---7-|-7---7--0h5--7---|   	        |-7~\|
E|----------------|-----------------|      	|----|


            
            
Suggest correction
Creating personal tab
Creating personal tab
You can edit any tab online and save it as your Personal.

You can edit, replace or remove any tab part or add personal notes – all changes will be seen only by you.

Personal tabs can be accessed anytime from any device, even offline.
Learn more »
comments
print report bad tab
1 comment total.
0 reply
iplaybass5 1,099 Mar 05, 2009 01:29 PM

this is literally the exact same tab as version 2

guest
You may want to rate the tab now too:
select rating
Wanna post a correction for this tab? Suggest correction